Guitar Tabs, Chords and Lyrics
Login is temporarily disabled for some users. Do not panic. Will be back in an hour or two. DO NOT REREGISTER!!


Unable to See   Tremonti

 
 D#|----------------------------|----------------------------|--------------0-------------|
 A#|--15----------15\14-12------|----------------------------|-----------------10---------|
 F#|--------11------------------|--14----------12h14-12------|--------------------11------|
 C#|--0--------0----------------|--------11------------------|--12------------------------|
 G#|----------------------------|--0--------0----------------|--------9-------------------|
 C#|----------------------------|----------------------------|--9--------9----------------|
 D#|-----------0----------------|-----------7----------------|----------------------------|
 A#|-----------------10---------|--10-------------10---------|----------------------------|
 F#|--------------------11L-----|-----9--------------9L------|--9-------------------------|
 C#|--12------------------------|----------------------------|----------------------------|
 G#|-----9----------------------|----------------------------|----------------------------|
 C#|--9-----9-------------------|--7-----7-------------------|----------------------------|
 D#|----------------------------|----------------------------|--------------0-------------|
 A#|--15----------15\14-12------|----------------------------|-----------------10---------|
 F#|--------11------------------|--14----------12h14-12------|--------------------11------|
 C#|--0--------0----------------|--------11------------------|--12------------------------|
 G#|----------------------------|--0--------0----------------|--------9-------------------|
 C#|----------------------------|----------------------------|--9--------9----------------|
 D#|-----------0----------------|-----------7----------------|----------------------------|
 A#|-----------------10---------|--10-------------10---------|----------------------------|
 F#|--------------------11L-----|-----9--------------9L------|--9-------------------------|
 C#|--12------------------------|----------------------------|----------------------------|
 G#|-----9----------------------|----------------------------|----------------------------|
 C#|--9-----9-------------------|--7-----7-------------------|----------------------------|

 


 


 [Verse 1] 


 


 (Clean)


 


 

 
 D#|--2---------------------2----2--2-2--2--2-2-2-2------------------------------------------|
 A#|--3--3-3--x--2--2-2--x--2----2--2-2--2--2-2-2-2----2--2-2-2-2---8----8--8-8--7--7-7-7-7--|
 F#|--2--2-2--x--2--2-2--x--4----4--4-4--4--4-4-4-4----2--2-2-2-2---7----7--7-7--7--7-7-7-7--|
 C#|--0--0-0--x--2--2-2--x--4----4--4-4--4--4-4-4-4----2--2-2-2-2---5----5--5-5--5--5-5-5-5--|
 G#|--0--0-0--x--0--0-0--x--2----2--2-2--2--2-2-2-2----0--0-0-0-0---5----5--5-5--5--5-5-5-5--|
 C#|--0--0-0--x----------x------------------------------------------5----5--5-5--5--5-5-5-5--|
 D#|--2---------------------2----2--2-2--2--2-2-2-2------------------------------------------|
 A#|--3--3-3--x--2--2-2--x--2----2--2-2--2--2-2-2-2----2--2-2-2-2---8----8--8-8--7--7-7-7-7--|
 F#|--2--2-2--x--2--2-2--x--4----4--4-4--4--4-4-4-4----2--2-2-2-2---7----7--7-7--7--7-7-7-7--|
 C#|--0--0-0--x--2--2-2--x--4----4--4-4--4--4-4-4-4----2--2-2-2-2---5----5--5-5--5--5-5-5-5--|
 G#|--0--0-0--x--0--0-0--x--2----2--2-2--2--2-2-2-2----0--0-0-0-0---5----5--5-5--5--5-5-5-5--|
 C#|--0--0-0--x----------x------------------------------------------5----5--5-5--5--5-5-5-5--|
 D#|--2---------------------2----2--2-2--2--2-2-2-2------------------------------------------|
 A#|--3--3-3--x--2--2-2--x--2----2--2-2--2--2-2-2-2----2--2-2-2-2---8----8--8-8--7--7-7-7-7--|
 F#|--2--2-2--x--2--2-2--x--4----4--4-4--4--4-4-4-4----2--2-2-2-2---7----7--7-7--7--7-7-7-7--|
 C#|--0--0-0--x--2--2-2--x--4----4--4-4--4--4-4-4-4----2--2-2-2-2---5----5--5-5--5--5-5-5-5--|
 G#|--0--0-0--x--0--0-0--x--2----2--2-2--2--2-2-2-2----0--0-0-0-0---5----5--5-5--5--5-5-5-5--|
 C#|--0--0-0--x----------x------------------------------------------5----5--5-5--5--5-5-5-5--|
 D#|--2---------------------2----2--2-2--2--2-2-2-2------------------------------------------|
 A#|--3--3-3--x--2--2-2--x--2----2--2-2--2--2-2-2-2----2--2-2-2-2---8----8--8-8--7--7-7-7-7--|
 F#|--2--2-2--x--2--2-2--x--4----4--4-4--4--4-4-4-4----2--2-2-2-2---7----7--7-7--7--7-7-7-7--|
 C#|--0--0-0--x--2--2-2--x--4----4--4-4--4--4-4-4-4----2--2-2-2-2---5----5--5-5--5--5-5-5-5--|
 G#|--0--0-0--x--0--0-0--x--2----2--2-2--2--2-2-2-2----0--0-0-0-0---5----5--5-5--5--5-5-5-5--|
 C#|--0--0-0--x----------x------------------------------------------5----5--5-5--5--5-5-5-5--|

 


 


 [Pre-Cborus 1] 


 


 

 
 D#|--------3-3---3--3--3-3~----|
 A#|--2~----3-3---3--3--3-3~----|
 F#|--2~----0-0---0--0--0-0~----|
 C#|--2~----0-0---0--0--0-0~----|
 G#|--0~----x-x---x--x--x-x~----|
 C#|--------3-3---3--3--3-3~----|

 


 


 [Cborus 1] 


 


 

 
 D#|--2--------------------------------------------------|
 A#|--3--3-3-3-3-----------------------------------------|
 F#|--2--2-2-2-2--4--4-4-4-4-----------------------------|
 C#|--0--0-0-0-0--4--4-4-4-4--4--4--4-4--5---5--5-5-5----|
 G#|--0--0-0-0-0--2--2-2-2-2--4--4--4-4--5---5--5-5-5----|
 C#|--0--0-0-0-0--------------4--4--4-4--5---5--5-5-5----|
 D#|--2--------------------------------------------------|
 A#|--3--3-3-3-3-----------------------------------------|
 F#|--2--2-2-2-2--4--4-4-4-4-----------------------------|
 C#|--0--0-0-0-0--4--4-4-4-4--4--4--4-4--5---5--5-5-5----|
 G#|--0--0-0-0-0--2--2-2-2-2--4--4--4-4--5---5--5-5-5----|
 C#|--0--0-0-0-0--------------4--4--4-4--5---5--5-5-5----|
 D#|--2--------------------------------------------------|
 A#|--3--3-3-3-3-----------------------------------------|
 F#|--2--2-2-2-2--4--4-4-4-4-----------------------------|
 C#|--0--0-0-0-0--4--4-4-4-4--4--4--4-4--5---5--5-5-5----|
 G#|--0--0-0-0-0--2--2-2-2-2--4--4--4-4--5---5--5-5-5----|
 C#|--0--0-0-0-0--------------4--4--4-4--5---5--5-5-5----|
 D#|--2--------------------------------------------------|
 A#|--3--3-3-3-3-----------------------------------------|
 F#|--2--2-2-2-2--4--4-4-4-4-----------------------------|
 C#|--0--0-0-0-0--4--4-4-4-4--4--4--4-4--5---5--5-5-5~---|
 G#|--0--0-0-0-0--2--2-2-2-2--4--4--4-4--5---5--5-5-5~---|
 C#|--0--0-0-0-0--------------4--4--4-4--5---5--5-5-5~---|

 


 


 [Verse 2] 


 


 (Distortion)


 


 

 
 D#|--------------------------------------------------------------------------------------|
 A#|-------2------------------------------------------------------------------------------|
 F#|--7----2----4--4--4-4-4-4--4-4-4-4----------------------------------------------------|
 C#|--7----2----4--4--4-4-4-4--4-4-4-4---7--7-7-x-4-4-x-5--5--5-5-5-5--5-5-5-5------------|
 G#|--5----0----2--2--2-2-2-2--2-2-2-2---7--7-7-x-4-4-x-5--5--5-5-5-5--5-5-5-5------------|
 C#|-------------------------------------7--7-7-x-4-4-x-5--5--5-5-5-5--5-5-5-5------------|
 D#|--------------------------------------------------------------------------------------|
 A#|---------2-2-2------------------------------------------------------------------------|
 F#|--7-7-7--2-2-2----4--4--4-4-4-4--4-4-4-4----------------------------------------------|
 C#|--7-7-7--2-2-2----4--4--4-4-4-4--4-4-4-4-x-x-7--7-7-x-4-4-x-5--5--5-5-5-5--5-5-5-5----|
 G#|--5-5-5--0-0-0----2--2--2-2-2-2--2-2-2-2-x-x-7--7-7-x-4-4-x-5--5--5-5-5-5--5-5-5-5----|
 C#|-----------------------------------------x-x-7--7-7-x-4-4-x-5--5--5-5-5-5--5-5-5-5----|
 D#|--------------------------------------------------------------------------------------|
 A#|---------2-2-2------------------------------------------------------------------------|
 F#|--7-7-7--2-2-2----4--4--4-4-4-4--4-4-4-4----------------------------------------------|
 C#|--7-7-7--2-2-2----4--4--4-4-4-4--4-4-4-4-x-x-7--7-7-x-4-4-x-5--5--5-5-5-5--5-5-5-5----|
 G#|--5-5-5--0-0-0----2--2--2-2-2-2--2-2-2-2-x-x-7--7-7-x-4-4-x-5--5--5-5-5-5--5-5-5-5----|
 C#|-----------------------------------------x-x-7--7-7-x-4-4-x-5--5--5-5-5-5--5-5-5-5----|
 D#|--------------------------------------------------------------------------------------|
 A#|---------2-2-2------------------------------------------------------------------------|
 F#|--7-7-7--2-2-2----4--4--4-4-4-4--4-4-4-4----------------------------------------------|
 C#|--7-7-7--2-2-2----4--4--4-4-4-4--4-4-4-4-x-x-7----------------------------------------|
 G#|--5-5-5--0-0-0----2--2--2-2-2-2--2-2-2-2-x-x-7--------------5-5-5-5-5-5-5-5-----------|
 C#|-----------------------------------------x-x-7--------------5-5-5-5-5-5-5-5-----------|

 


 PM * * * * * *


 


 [Cborus 2] 


 


 

 
 D#|--2--------------------------------------------------|
 A#|--3--3-3-3-3-----------------------------------------|
 F#|--2--2-2-2-2--4--4-4-4-4-----------------------------|
 C#|--0--0-0-0-0--4--4-4-4-4--4--4--4-4--5---5--5-5-5----|
 G#|--0--0-0-0-0--2--2-2-2-2--4--4--4-4--5---5--5-5-5----|
 C#|--0--0-0-0-0--------------4--4--4-4--5---5--5-5-5----|
 D#|--2--------------------------------------------------|
 A#|--3--3-3-3-3-----------------------------------------|
 F#|--2--2-2-2-2--4--4-4-4-4-----------------------------|
 C#|--0--0-0-0-0--4--4-4-4-4--4--4--4-4--5---5--5-5-5----|
 G#|--0--0-0-0-0--2--2-2-2-2--4--4--4-4--5---5--5-5-5----|
 C#|--0--0-0-0-0--------------4--4--4-4--5---5--5-5-5----|
 D#|--2--------------------------------------------------|
 A#|--3--3-3-3-3-----------------------------------------|
 F#|--2--2-2-2-2--4--4-4-4-4-----------------------------|
 C#|--0--0-0-0-0--4--4-4-4-4--4--4--4-4--5---5--5-5-5----|
 G#|--0--0-0-0-0--2--2-2-2-2--4--4--4-4--5---5--5-5-5----|
 C#|--0--0-0-0-0--------------4--4--4-4--5---5--5-5-5----|
 D#|--2--------------------------------------------------|
 A#|--3--3-3-3-3-----------------------------------------|
 F#|--2--2-2-2-2--4--4-4-4-4-----------------------------|
 C#|--0--0-0-0-0--4--4-4-4-4--4--4--4-4--5---5--5-5-5~---|
 G#|--0--0-0-0-0--2--2-2-2-2--4--4--4-4--5---5--5-5-5~---|
 C#|--0--0-0-0-0--------------4--4--4-4--5---5--5-5-5~---|

 


 


 [Bridge] 


 


 

 
 D#|-----------------------------------------------------------------------------------------------------|
 A#|-----------------------------------------------------------------------------------------------------|
 F#|---------------------------------------------------7--7--7-7-7-7--7-7-7-7--7--7--7-7-7-7--7-7-7-7----|
 C#|---7--7--7-7-7-7--7-7-7-7--5--5--5-5-5-5--5-5-5-5--7--7--7-7-7-7--7-7-7-7--7--7--7-7-7-7--7-7-7-7----|
 G#|---7--7--7-7-7-7--7-7-7-7--5--5--5-5-5-5--5-5-5-5--5--5--5-5-5-5--5-5-5-5--5--5--5-5-5-5--5-5-5-5----|
 C#|---7--7--7-7-7-7--7-7-7-7--5--5--5-5-5-5--5-5-5-5----------------------------------------------------|
 D#|-----------------------------------------------------------------------------------------------------|
 A#|-----------------------------------------------------------------------------------------------------|
 F#|---------------------------------------------------7--7--7-7-7-7--7-7-7-7--7--7--7-7-7-7--7-7-7-7----|
 C#|---7--7--7-7-7-7--7-7-7-7--5--5--5-5-5-5--5-5-5-5--7--7--7-7-7-7--7-7-7-7--7--7--7-7-7-7--7-7-7-7----|
 G#|---7--7--7-7-7-7--7-7-7-7--5--5--5-5-5-5--5-5-5-5--5--5--5-5-5-5--5-5-5-5--5--5--5-5-5-5--5-5-5-5----|
 C#|---7--7--7-7-7-7--7-7-7-7--5--5--5-5-5-5--5-5-5-5----------------------------------------------------|
 D#|-----------------------------------------------------------------------------------------------------|
 A#|-----------------------------------------------------------------------------------------------------|
 F#|---------------------------------------------------7~------------------------------------------------|
 C#|---7--7--7-7-7-7--7-7-7-7--5--5--5-5-5-5--5-5-5-5--7~------------------------------------------------|
 G#|---7--7--7-7-7-7--7-7-7-7--5--5--5-5-5-5--5-5-5-5--5~------------------------------------------------|
 C#|---7--7--7-7-7-7--7-7-7-7--5--5--5-5-5-5--5-5-5-5----------------------------------------------------|

 


 


 [Clean Pre-Cborus 2] 


 


 

 
 D#|--2--------------------------------------------------------|
 A#|--3--3-3-3-3-------------------------8-8-8--8-7-7-7--------|
 F#|--2--2-2-2-2--4--4-4-4-4-------------7-7-7--7-7-7-7--------|
 C#|--0--0-0-0-0--4--4-4-4-4--4--4--4-4--5-5-5--5-5-5-5--------|
 G#|--0--0-0-0-0--2--2-2-2-2--4--4--4-4--5-5-5--5-5-5-5--------|
 C#|--0--0-0-0-0--------------4--4--4-4--5-5-5--5-5-5-5--------|
 D#|--2--------------------------------------------------------|
 A#|--3--3-3-3-3-----------------------------------------------|
 F#|--2--2-2-2-2--4--4-4-4-4-----------------------------------|
 C#|--0--0-0-0-0--4--4-4-4-4--4--4--4-4--5---------------------|
 G#|--0--0-0-0-0--2--2-2-2-2--4--4--4-4--5--5-5-5-5-5-5-5-5----|
 C#|--0--0-0-0-0--------------4--4--4-4--5--5-5-5-5-5-5-5-5----|

 


 PM * * * * *


 


 [Cborus 3] 


 


 (Distortion)


 


 

 
 D#|--2--------------------------------------------------|
 A#|--3--3-3-3-3-----------------------------------------|
 F#|--2--2-2-2-2--4--4-4-4-4-----------------------------|
 C#|--0--0-0-0-0--4--4-4-4-4--4--4--4-4--5---5--5-5-5----|
 G#|--0--0-0-0-0--2--2-2-2-2--4--4--4-4--5---5--5-5-5----|
 C#|--0--0-0-0-0--------------4--4--4-4--5---5--5-5-5----|
 D#|--2--------------------------------------------------|
 A#|--3--3-3-3-3-----------------------------------------|
 F#|--2--2-2-2-2--4--4-4-4-4-----------------------------|
 C#|--0--0-0-0-0--4--4-4-4-4--4--4--4-4--5---5--5-5-5----|
 G#|--0--0-0-0-0--2--2-2-2-2--4--4--4-4--5---5--5-5-5----|
 C#|--0--0-0-0-0--------------4--4--4-4--5---5--5-5-5----|
 D#|--2--------------------------------------------------|
 A#|--3--3-3-3-3-----------------------------------------|
 F#|--2--2-2-2-2--4--4-4-4-4-----------------------------|
 C#|--0--0-0-0-0--4--4-4-4-4--4--4--4-4--5---5--5-5-5----|
 G#|--0--0-0-0-0--2--2-2-2-2--4--4--4-4--5---5--5-5-5----|
 C#|--0--0-0-0-0--------------4--4--4-4--5---5--5-5-5----|
 D#|--2--------------------------------------------------|
 A#|--3--3-3-3-3-----------------------------------------|
 F#|--2--2-2-2-2--4--4-4-4-4-----------------------------|
 C#|--0--0-0-0-0--4--4-4-4-4--4--4--4-4--5---5--5-5-5~---|
 G#|--0--0-0-0-0--2--2-2-2-2--4--4--4-4--5---5--5-5-5~---|
 C#|--0--0-0-0-0--------------4--4--4-4--5---5--5-5-5~---|

 


 


 [Cborus 4/Solo] 


 


 

 
 D#|--2--------------------------------------------------|
 A#|--3--3-3-3-3-----------------------------------------|
 F#|--2--2-2-2-2--4--4-4-4-4-----------------------------|
 C#|--0--0-0-0-0--4--4-4-4-4--4--4--4-4--5---5--5-5-5----|
 G#|--0--0-0-0-0--2--2-2-2-2--4--4--4-4--5---5--5-5-5----|
 C#|--0--0-0-0-0--------------4--4--4-4--5---5--5-5-5----|
 D#|--2--------------------------------------------------|
 A#|--3--3-3-3-3-----------------------------------------|
 F#|--2--2-2-2-2--4--4-4-4-4-----------------------------|
 C#|--0--0-0-0-0--4--4-4-4-4--4--4--4-4--5---5--5-5-5----|
 G#|--0--0-0-0-0--2--2-2-2-2--4--4--4-4--5---5--5-5-5----|
 C#|--0--0-0-0-0--------------4--4--4-4--5---5--5-5-5----|
 D#|--2--------------------------------------------------|
 A#|--3--3-3-3-3-----------------------------------------|
 F#|--2--2-2-2-2--4--4-4-4-4-----------------------------|
 C#|--0--0-0-0-0--4--4-4-4-4--4--4--4-4--5---5--5-5-5----|
 G#|--0--0-0-0-0--2--2-2-2-2--4--4--4-4--5---5--5-5-5----|
 C#|--0--0-0-0-0--------------4--4--4-4--5---5--5-5-5----|
 D#|--2--------------------------------------------------|
 A#|--3--3-3-3-3-----------------------------------------|
 F#|--2--2-2-2-2--4--4-4-4-4-----------------------------|
 C#|--0--0-0-0-0--4--4-4-4-4--4--4--4-4--5---5--5-5-5~---|
 G#|--0--0-0-0-0--2--2-2-2-2--4--4--4-4--5---5--5-5-5~---|
 C#|--0--0-0-0-0--------------4--4--4-4--5---5--5-5-5~---|

 


 


 [Outro] 


 


 (Clean)


 


 

 
 D#|----------------------------|----------------------------|--------------0-------------|
 A#|--15----------15\14-12------|----------------------------|-----------------10---------|
 F#|--------11------------------|--14----------12h14-12------|--------------------11------|
 C#|--0--------0----------------|--------11------------------|--12------------------------|
 G#|----------------------------|--0--------0----------------|--------9-------------------|
 C#|----------------------------|----------------------------|--9--------9----------------|
 D#|-----------0----------------|-----------7----------------|----------------------------|
 A#|-----------------10---------|--10-------------10---------|----------------------------|
 F#|--------------------11L-----|-----9--------------9L------|--9-------------------------|
 C#|--12------------------------|----------------------------|----------------------------|
 G#|-----9----------------------|----------------------------|----------------------------|
 C#|--9-----9-------------------|--7-----7-------------------|----------------------------|
 D#|----------------------------|----------------------------|--------------0-------------|
 A#|--15----------15\14-12------|----------------------------|-----------------10---------|
 F#|--------11------------------|--14----------12h14-12------|--------------------11------|
 C#|--0--------0----------------|--------11------------------|--12------------------------|
 G#|----------------------------|--0--------0----------------|--------9-------------------|
 C#|----------------------------|----------------------------|--9--------9----------------|
 D#|-----------0----------------|-----------7----------------|----------------------------|
 A#|-----------------10---------|--10-------------10---------|----------------------------|
 F#|--------------------11L-----|-----9--------------9L------|--9-------------------------|
 C#|--12------------------------|----------------------------|----------------------------|
 G#|-----9----------------------|----------------------------|----------------------------|
 C#|--9-----9-------------------|--7-----7-------------------|----------------------------| 


Important: The song above is NOT stored on the Chordie server. The original song is hosted at www.azchords.com. Chordie works as a search engine and provides on-the-fly formatting. Chordie does not index songs against artists'/composers' will. To remove this song please click here.

This song is displayed as text-only. Transposing and tuning is only available for chordpro-songs.
Rate #1 of 2 versions

Jango Player

Login - add to songbook

SHARE PAGE  




You need to log in to post comments