Guitar Tabs, Chords and Lyrics
Major upgrade!! After one year development the new version of Chordie is now online! Please give feedback.


Pillars of Serpents  Trivium

Band- Trivium
Song- Pillars Of Serpent
Gtr I (D A D G B E) - 'Guitar I'
Gtr II (D A D G B E) - 'Guitar II'
Gtr III (D A D G B E) - 'Pick Scr*pe'
Intro
Q=202
N.C.
[4/4] Gtrs I, II
 
 PM----------------------------------------------|

S S E S S E S S E S S E S S E S S E S S E S S E
 
 ||--------------------------|--------------------------||
 ||o-------------------------|-------------------------o||
 ||--------------------------|--------------------------||
 ||--------------------------|--------------------------||
 ||o-------------------------|-------------------------o||
 ||--0-0-0-0-0-0-0-0-0-0-0-0-|-0-0-0-0-0-0-0-0-0-0-0-0--||
 PM--------------------------------------------------|

S S E S S E S S E S S S S S S E S S E S S E S S S S
 
 ||----------------------------|----------------------------||
 ||o---------------------------|---------------------------o||
 ||----------------------------|----------------------------||
 ||----------------------------|----------------------------||
 ||o---------------------------|---------------------------o||
 ||--0-0-0-0-0-0-0-0-0-0-0-0-0-|-0-0-0-0-0-0-0-0-0-0-0-0-0--||

[D5]Gtr I
W +W
 
 ||------------------|---------------------|
 ||o-----------------|---------------------|
 ||------------------|---------------------|
 ||--0---------------|-(0)-----------------|
 ||o-0---------------|-(0)-----------------|
 ||--0---------------|-(0)-----------------|

|
| Gtr II
| PM| PM PM PM PM
| E E E E E E E E E E E E E E E E
 
 ||------------------|---------------------|
 ||o-----------------|---------------------|
 ||------7s8---7s8---|--8s10---8s10---8s10-|
 ||------------------|---------------------|
 ||o-----5s6---5s6---|--6s=8---6s=8---6s=8-|
 ||--0-0-----0-----0-|-------0------0------|

Gtr III
TPTPTPTPTPTPTPTP TPTPTPTP TPTPTPTP
+W +H T T T T T T T T T T T T T T T T
 
 |-----------------------|-----------------------------------------------|
 |-----------------------|-----------------------------------------------|
 |-----------------------|-----------------------------------------------|
 |-(0)-------------------|-(0)-------------------------------------------|
 |-(0)-------------------|-(0)-------------------------------------------|
 |-(0)-------------------|-(0)---------xsxsxsxsxsxsxsxs=xsxsxsxs=xsxsxsx-|

|
| PM-| PM PM PM PM
| E E E E E E E E E E E E E E E E
 
 |-----------------------|-----------------------------------------------|
 |-----------------------|-----------------------------------------------|
 |-------10s11---10s11---|-11s13---11s13---------------11s======13-------|
 |-----------------------|-----------------------------------------------|
 |--------8s=9----8s=9---|--9s11----9s11----------------9s======11-------|
 |--0--0-------0-------0-|-------0-------------0-------------------------|

[F5]Gtrs I, II[Ab5] [E5] [G5]
W W W W
 
 |----------|----------|----------|-------||
 |----------|----------|----------|------o||
 |----------|----------|----------|-------||
 |-3--------|-6--------|-2--------|-5-----||
 |-3--------|-6--------|-2--------|-5----o||
 |-3--------|-6--------|-2--------|-5-----||

Verse
$
N.C.
PM--| PM PM PM PM
S S E E E E E E E E E E E E E E E
 
 ||--------------------|--------------------|
 ||o-------------------|--------------------|
 ||--------7s8---7s8---|-8s10---8s10---8s10-|
 ||--------------------|--------------------|
 ||o-------5s6---5s6---|-6s=8---6s=8---6s=8-|
 ||--0-0-0-----0-----0-|------0------0------|

PM--| PM PM PM PM
S S E E E E E E E E E E E E E E E
 
 |-----------------------|-----------------------|
 |-----------------------|-----------------------|
 |-------10s11---10s11---|-11s13---11s13---11s13-|
 |-----------------------|-----------------------|
 |--------8s=9----8s=9---|--9s11----9s11----9s11-|
 |-0-0-0-------0-------0-|-------0-------0-------|

PM--| [F5] PM| PM| [Ab5] PM| PM|
S S E Q S S Q S S Q S S Q S S E E
 
 |---------------------|-------------------|
 |---------------------|-------------------|
 |---------------------|-------------------|
 |-------3------3------|-6------6------6-6-|
 |-------3------3------|-6------6------6-6-|
 |-3-3-3-3--3-3-3--3-3-|-6--6-6-6--6-6-6-6-|

1. 2.
PM--| [E5] PM| PM| [G5] PM| PM|[G5]
S S E Q S S Q S S Q S S Q S S Q W
 
 |---------------------|-------------------||------||
 |---------------------|------------------o||------||
 |---------------------|-------------------||------||
 |-------2------2------|-5------5------5---||-5----||
 |-------2------2------|-5------5------5--o||-5----||
 |-2-2-2-2--2-2-2--2-2-|-5--5-5-5--5-5-5---||-5----||

Chorus
Q=101
[D5EbD5] [Eb5] [D5EbD5] [Eb5] [F#5] [F5]  
 
 PM----| PM----------| PM----| PM| PM| PM

S S E S S S S S S S S S S S S S S E S S S S S S S S S S S S
 
 ||--------------------------------|-------------------------------|
 ||o-------------------------------|-------------------------------|
 ||--7s8s7-------------------------|-7s8s7-------------------------|
 ||--7s8s7-------------------------|-7s8s7-------------------------|
 ||o-5s6s5---------1---------------|-5s6s5---------1-----4-----3---|
 ||--------0-0-0-0-1-0-0-0-0-0-0-0-|-------0-0-0-0-1-0-0-4-0-0-3-0-|

D.S.
[D5EbD5] [Eb5] [D5EbD5] [Eb5F#5F5]  
 
 PM----| PM----------| PM----|

S S E S S S S S S S S S S S S S S E S S S S E. E. E
 
 |-------------------------------|------------------------||
 |-------------------------------|-----------------------o||
 |-7s8s7-------------------------|-7s8s7------------------||
 |-7s8s7-------------------------|-7s8s7---------1--4--3--||
 |-5s6s5---------1---------------|-5s6s5---------1--4--3-o||
 |-------0-0-0-0-1-0-0-0-0-0-0-0-|-------0-0-0-0-1--4--3--||

Interlude
[D5]E. [F5]E. [Eb5]E +E. [F#5F5]E. E [D5]E. [F5]E. [Eb5]E +E. [F#5F5]E. E
 
 |------------------|------------------|
 |------------------|------------------|
 |------------------|------------------|
 |-0--3--1-(1)-4--3-|-0--3--1-(1)-4--3-|
 |-0--3--1-(1)-4--3-|-0--3--1-(1)-4--3-|
 |-0--3--1-(1)-4--3-|-0--3--1-(1)-4--3-|

[D5] [F5] [Eb5] [F#5F5] [D5] [F5] [Eb5]  
E. E. E +E. E. E [2/4] E. E. E
 
 |------------------|---------||
 |------------------|---------||
 |------------------|---------||
 |-0--3--1-(1)-4--3-|-0--3--1-||
 |-0--3--1-(1)-4--3-|-0--3--1-||
 |-0--3--1-(1)-4--3-|-0--3--1-||

Bridge
Q=175
$$
D5
W. +W. W. +W.
|---------------|----------------|---------------|--------|
|---------------|----------------|---------------|--------|
|---------------|----------------|---------------|--------|
|-0-------------|-(0)------------|-0-------------|-(0)----|
|-0-------------|-(0)------------|-0-------------|-(0)----|
|-0-------------|-(0)------------|-0-------------|-(0)----|
N.C.
PM--------------------------------------------------------------|
S S E E E S S E E S S E E S S E S S E E E S S E E S S E E S S E
||----------------------------------|---------------------------------|
||o---------------------------------|---------------------------------|
||----------------------------------|---------------------------------|
||----------------------------------|---------------------------------|
||o---------------------------------|---------------------------------|
||--0-0-3-1-0-4-4-3-0-3-3-1-0-1-1-3-|-0-0-3-1-0-4-4-3-0-3-3-1-0-1-1-3-|
PM--------------------------------------------------------------|
S S E E E S S E E S S E E S S E S S E E E S S E E S S E E S S E
|---------------------------------|----------------------------------|
|---------------------------------|----------------------------------|
|---------------------------------|----------------------------------|
|---------------------------------|----------------------------------|
|---------------------------------|----------------------------------|
|-0-0-3-1-0-4-4-3-0-3-3-1-0-1-1-3-|-0-0-3-1-0-4-4-3-0-3-3-1-0-1-1-3--|
D5F5EbD5F#F5D5F5EbD5EbF5 D5F5EbD5F#F5D5F5EbD5EbF5
|-------------------------|-------------------------|
|-------------------------|-------------------------|
|-------------------------|-------------------------|
|-0-3-1-0-4-3-0-3-1-0-1-3-|-0-3-1-0-4-3-0-3-1-0-1-3-|
|-0-3-1-0-4-3-0-3-1-0-1-3-|-0-3-1-0-4-3-0-3-1-0-1-3-|
|-0-3-1-0-4-3-0-3-1-0-1-3-|-0-3-1-0-4-3-0-3-1-0-1-3-|
Fine
D5F5EbD5F#F5D5F5EbD5EbF5 D5F5EbD5F#F5D5F5EbD5EbF5
|-------------------------|--------------------------||
|-------------------------|-------------------------o||
|-------------------------|--------------------------||
|-0-3-1-0-4-3-0-3-1-0-1-3-|-0-3-1-0-4-3-0-3-1-0-1-3--||
|-0-3-1-0-4-3-0-3-1-0-1-3-|-0-3-1-0-4-3-0-3-1-0-1-3-o||
|-0-3-1-0-4-3-0-3-1-0-1-3-|-0-3-1-0-4-3-0-3-1-0-1-3--||
N.C.
Gtr I
PM----------------------------------------------|
S S E S S E S S E S S E S S E S S E S S E S S E
||--------------------------|-------------------------|
||o-------------------------|-------------------------|
||--------------------------|-------------------------|
||--------------------------|-------------------------|
||o-------------------------|-------------------------|
||--0-0-0-0-0-0-0-0-0-0-0-0-|-0-0-0-0-0-0-0-0-0-0-0-0-|
|
| Gtr II
| W W
||--------------------------|-------------------------|
||o-------------------------|-------------------------|
||--8-----------------------|-7-----------------------|
||--------------------------|-------------------------|
||o-6-----------------------|-5-----------------------|
||--------------------------|-------------------------|
PM-----------------------------------------------|
S S E S S E S S E S S E S S E S S E S S E S S E
|--------------------------|--------------------------|
|--------------------------|--------------------------|
|--------------------------|--------------------------|
|--------------------------|--------------------------|
|--------------------------|--------------------------|
|--0-0-0-0-0-0-0-0-0-0-0-0-|--0-0-0-0-0-0-0-0-0-0-0-0-|
|
| W W
|--------------------------|--------------------------|
|--------------------------|--------------------------|
|-10-----------------------|-11-----------------------|
|--------------------------|--------------------------|
|--8-----------------------|--9-----------------------|
|--------------------------|--------------------------|
PM----------------------------------------------|
S S E S S E S S E S S E S S E S S E S S E S S E
|-------------------------|-------------------------|
|-------------------------|-------------------------|
|-------------------------|-------------------------|
|-------------------------|-------------------------|
|-------------------------|-------------------------|
|-0-0-0-0-0-0-0-0-0-0-0-0-|-0-0-0-0-0-0-0-0-0-0-0-0-|
|
| W W
|-------------------------|-------------------------|
|-------------------------|-------------------------|
|-8-----------------------|-7-----------------------|
|-------------------------|-------------------------|
|-6-----------------------|-5-----------------------|
|-------------------------|-------------------------|
1.
PM-----------------------------------------------|
S S E S S E S S E S S E S S E S S E S S E S S E
|--------------------------|--------------------------|
|--------------------------|--------------------------|
|--------------------------|--------------------------|
|--------------------------|--------------------------|
|--------------------------|--------------------------|
|--0-0-0-0-0-0-0-0-0-0-0-0-|--0-0-0-0-0-0-0-0-0-0-0-0-|
|
| W W
|--------------------------|--------------------------|
|--------------------------|--------------------------|
|-14-----------------------|-13-----------------------|
|--------------------------|--------------------------|
|-12-----------------------|-11-----------------------|
|--------------------------|--------------------------|
Gtrs I, II
|-----------------|-----------------|-----------------|
|-----------------|-----------------|-----------------|
|-----------------|-----------------|-----------------|
|-0-3-1-0-4-3-0-3-|-1-0-1-3-0-3-1-0-|-4-3-0-3-1-0-1-3-|
|-0-3-1-0-4-3-0-3-|-1-0-1-3-0-3-1-0-|-4-3-0-3-1-0-1-3-|
|-0-3-1-0-4-3-0-3-|-1-0-1-3-0-3-1-0-|-4-3-0-3-1-0-1-3-|
D5F5EbD5F#F5D5F5 EbD5EbF5D5F5EbD5 F#F5D5F5EbD5EbF5
|-----------------|-----------------|------------------||
|-----------------|-----------------|-----------------o||
|-----------------|-----------------|------------------||
|-0-3-1-0-4-3-0-3-|-1-0-1-3-0-3-1-0-|-4-3-0-3-1-0-1-3--||
|-0-3-1-0-4-3-0-3-|-1-0-1-3-0-3-1-0-|-4-3-0-3-1-0-1-3-o||
|-0-3-1-0-4-3-0-3-|-1-0-1-3-0-3-1-0-|-4-3-0-3-1-0-1-3--||
2.
W W
|----------|------||
|----------|------||
|----------|------||
|-4--------|-7----||
|-2--------|-5----||
|-2--------|-5----||
Bridge
Q.=78
6/8
E. E. E E E E. E. E E E E. E. E E E E. E. E E E
||--------------|-------------|-------------|-------------|
||o-------------|-------------|-------------|-------------|
||--5--4--9-5-5-|-5--4--7-5-5-|-1--0--3-1-1-|-1--0--3-1-1-|
||--7--7--7-7-7-|-7--7--7-7-7-|-3--3--3-3-3-|-3--3--3-3-3-|
||o-7--7--7-7-7-|-7--7--7-7-7-|-3--3--3-3-3-|-3--3--3-3-3-|
||--------------|-------------|-------------|-------------|
E. E. E E E E. E. E E E
|-------------|-------------|
|-------------|-------------|
|-4--3--6-4-4-|-4--3--6-4-4-|
|-6--6--6-6-6-|-6--6--6-6-6-|
|-6--6--6-6-6-|-6--6--6-6-6-|
|-------------|-------------|
E S S S S E S S E E S S S S E S S S S
|-------------------|--------------------------------||
|-------------------|-------------------------------o||
|-------------------|--------------------------------||
|-4-4-4-4-4-4-4-4-4S|==7--7--7--7--7--7--7--7--7--7--||
|-7-7-7-7-7-7-7-7-7S|=10-10-10-10-10-10-10-10-10-10-o||
|-9-9-9-9-9-9-9-9-9S|=12-12-12-12-12-12-12-12-12-12--||
PM----------------------------------------------|
S S S S S S S S S S S S S S S S S S S S S S S S
|-------------------------|-------------------------|
|-------------------------|-------------------------|
|-5-5-5-4-4-4-9-9-5-5-5-5-|-5-5-5-4-4-4-7-7-5-5-5-5-|
|-7-7-7-7-7-7-7-7-7-7-7-7-|-7-7-7-7-7-7-7-7-7-7-7-7-|
|-7-7-7-7-7-7-7-7-7-7-7-7-|-7-7-7-7-7-7-7-7-7-7-7-7-|
|-------------------------|-------------------------|
PM----------------------------------------------|
S S S S S S S S S S S S S S S S S S S S S S S S
|-------------------------|-------------------------|
|-------------------------|-------------------------|
|-1-1-1-0-0-0-3-3-1-1-1-1-|-1-1-1-0-0-0-3-3-1-1-1-1-|
|-3-3-3-3-3-3-3-3-3-3-3-3-|-3-3-3-3-3-3-3-3-3-3-3-3-|
|-3-3-3-3-3-3-3-3-3-3-3-3-|-3-3-3-3-3-3-3-3-3-3-3-3-|
|-------------------------|-------------------------|
PM----------------------------------------------|
S S S S S S S S S S S S S S S S S S S S S S S S
|-------------------------|-------------------------|
|-------------------------|-------------------------|
|-4-4-4-3-3-3-6-6-4-4-4-4-|-4-4-4-3-3-3-6-6-4-4-4-4-|
|-6-6-6-6-6-6-6-6-6-6-6-6-|-6-6-6-6-6-6-6-6-6-6-6-6-|
|-6-6-6-6-6-6-6-6-6-6-6-6-|-6-6-6-6-6-6-6-6-6-6-6-6-|
|-------------------------|-------------------------|
E S S S S E S S E E S S S S E S S S S
|-------------------|-------------------------------||
|-------------------|-------------------------------||
|-------------------|-------------------------------||
|-4-4-4-4-4-4-4-4-4S|==7--7--7--7--7--7--7--7--7--7-||
|-7-7-7-7-7-7-7-7-7S|=10-10-10-10-10-10-10-10-10-10-||
|-9-9-9-9-9-9-9-9-9S|=12-12-12-12-12-12-12-12-12-12-||
Guitar Solo
Gtr I
E. E S E E E E. E S E E E
|-----------------------|-----------------------|
|-----------------------|-----------------------|
|-----------------------|-----------------------|
|--7--7-7---7--7------7-|---9--9-9--10--10-10---|
|--7--7-7---7--7------7-|---9--9-9--10--10-10---|
|--7--7-7---7--7------7-|---9--9-9--10--10-10---|
|
| Gtr II
| ~~~~~~~~~~~~ ~~~~~~~~~~~~
| Q. +E. +S E Q. +Q S S
|-----------------------|-----------------------|
|-----------------------|-----------------------|
|-----------------------|-/12------(12)----10p9-|
|-10------(10)---(10)s9-|-----------------------|
|-----------------------|-----------------------|
|-----------------------|-----------------------|
E. E S E E E E. E S E E E
|-----------------------|----------------------|
|-----------------------|----------------------|
|-----------------------|----------------------|
|--3--3-3---3--3------3-|---9--9----9-10-10-10-|
|--3--3-3---3--3------3-|---9--9----9-10-10-10-|
|--3--3-3---3--3------3-|---9--9----9-10-10-10-|
|
| ~~~~~~~~~~~~
| Q. +E. +S E Q Q Q
|-----------------------|----------------------|
|-----------------------|-/13----12------10----|
|-10------(10)---(10)s9-|----------------------|
|-----------------------|----------------------|
|-----------------------|----------------------|
|-----------------------|----------------------|
E. E S E E E
|-----------------------------------------|
|-----------------------------------------|
|-----------------------------------------|
|-6--6----6-6------6-----------6----------|
|-6--6----6-6------6-----------6----------|
|-6--6----6-6------6-----------6----------|
|
| Q S S E T T T T T T T T
|--------------------------------------16-|
|-9----9h10-9tr10-12-13-15-17-13-15-17----|
|-----------------------------------------|
|-----------------------------------------|
|-----------------------------------------|
|-----------------------------------------|
E. E S E E E
|--------------------------------------------------------------------------|
|--------------------------------------------------------------------------|
|--------------------------------------------------------------------------|
|--8------------------8-----------8-----9-----------9-----------9----------|
|--8------------------8-----------8-----9-----------9-----------9----------|
|--8------------------8-----------8-----9-----------9-----------9----------|
|
| T T T T T T T T T T T T T T T T T T T T T T T T
|--------------------------------------------------------------------------|
|-18--17-18-17-15----------------------------------------------------------|
|-----------------17-16-14-------------------------16-14-12----------------|
|--------------------------17-15-14-15-14-12----------------15-14-12-14-12-|
|--------------------------------------------15-14-------------------------|
|--------------------------------------------------------------------------|
E. E S E E E
|----------------------------------------------------------------------|
|----------------------------------------------------------------------|
|----------------------------------------------------------------------|
|--4------------------4-----------4------4------4-----------4S=========|
|--7------------------7-----------7------7------7-----------7S=========|
|--9------------------9-----------9------9------9-----------9S=========|
|
| T T T T T T T T T T T T E T T T T T T T T
|----------------------------------------------------------------------|
|----------------------------------------------------------------------|
|----------------------------------------------------------------------|
|----------------------------------------------12----------------------|
|-15--14-15-14-12-14-12-10------------------------15-14-12-15-14-12-14-|
|--------------------------16-14-12-14-[16]b18r========================|
E. E S E E E
|----------------------------|
|----------------------------|
|----------------------------|
|--7------7-----7--7---7--7--|
|-10-----10----10-10--10-10--|
|-12-----12----12-12--12-12--|
|
| ~~~
| E E E Q.
|----------------------------|
|----------------------------|
|----------------------------|
|----------------------------|
|-11--12----11----12---------|
|----------------------------|
E. E S E E E E. E S E E E E. E S E E E
|----------------|-------------------------|-----------------------------------|
|----------------|-------------------------|-----------------------------------|
|----------------|-------------------------|-----------------------------------|
|---7--7-7-7-7-7-|--9---9--9-10--10-----10-|--3--3-3-3--3-----------3----------|
|---7--7-7-7-7-7-|--9---9--9-10--10-----10-|--3--3-3-3--3-----------3----------|
|---7--7-7-7-7-7-|--9---9--9-10--10-----10-|--3--3-3-3--3-----------3----------|
|
| ~~~~~~~~~~~~~~~~~~~ ~~~
| H. E. E. E. E. H T T T T T T T T
|----------------|-------------------------|-----------------------------------|
|-/17------------|-15----------------------|-----------------15-17-18-17-15----|
|----------------|-----17----16-----17-----|-17--------16-17----------------17-|
|----------------|-------------------------|-----------------------------------|
|----------------|-------------------------|-----------------------------------|
|----------------|-------------------------|-----------------------------------|
E. E S E E E
|-----------------------------------------------|
|-----------------------------------------------|
|-----------------------------------------------|
|--9---------9---------9-10----------10--10-----|
|--9---------9---------9-10----------10--10-----|
|--9---------9---------9-10----------10--10-----|
|
| E T T T T +E T T T T E. S
|-----------------------------------------------|
|-15--------------------------------------------|
|-----17-16-17s19-(19)---17-16-14-16-17-----16--|
|-----------------------------------------------|
|-----------------------------------------------|
|-----------------------------------------------|
E. E S E E E
|---------------------------------------------|
|---------------------------------------------|
|---------------------------------------------|
|--6------------6----6--6--------6--------6---|
|--6------------6----6--6--------6--------6---|
|--6------------6----6--6--------6--------6---|
|
| |--3---| |------6-------|
| S S S S S S S S S S S S S S S
|----------------------------------16----16---|
|-----------15----15------------15----15------|
|--------16----16------------16---------------|
|-----15------------------15------------------|
|-14-------------------14---------------------|
|---------------------------------------------|
E. E S E E E
|---------------------------------------------|
|---------------------------------------------|
|---------------------------------------------|
|--8--------------8----------8------9---9--9--|
|--8--------------8----------8------9---9--9--|
|--8--------------8----------8------9---9--9--|
|
| |--------6--------| |---3---|
| S S S S S S S S S +E E E
|------------------------------22-(22)-20-19--|
|-----------17------17----17------------------|
|--------18----18------18---------------------|
|-----17--------------------------------------|
|-16------------------------------------------|
|---------------------------------------------|
H.=H Q.=65
D.S.S. al Fine
E. E S E E E E. E S Q.
|--------------------------|-------------------------*|
|--------------------------|-------------------------*|
|--------------------------|-------------------------*|
|--4----------4-4---4--4-4S|===7---7--7---7----------*|
|--7----------7-7---7--7-7S|==10--10-10--10----------*|
|--9----------9-9---9--9-9S|==12--12-12--12----------*|
|
| ~~~~
| E +Q +Q. +Q. +Q +E
|-22b24==(22)-----(22)-----|-(22)-------(22)--(22)r\-*|
|--------------------------|-------------------------*|
|--------------------------|-------------------------*|
|--------------------------|-------------------------*|
|--------------------------|-------------------------*|
|--------------------------|-------------------------*|
Duration Legend
---------------
W - whole; H - half; Q - quarter; E - 8th; S - 16th; T - 32nd; X - 64th; a - acciaccatura
+ - note tied to previous; . - note dotted; .. - note double dotted
Uncapitalized letters represent notes that are staccato (1/2 duration)
Irregular groupings are notated above the duration line
Duration letters will always appear directly above the note/fret number it represents the
duration for. Duration letters with no fret number below them represent rests. Multi-
bar rests are notated in the form Wxn, where n is the number of bars to rest for. Low
melody durations appear below the staff
Tablature Legend
----------------
h - hammer-on
p - pull-off
b - bend
pb - pre-bend
r - bend release (if no number after the r, then release immediately)
/\ - slide into or out of (from/to "nowhere")
s - legato slide
S - shift slide
- natural harmonic
[n] - artificial harmonic
n(n) - tapped harmonic
~ - vibrato
tr - trill
T - tap
TP - trem. picking
PM - palm muting
\n/ - tremolo bar dip; n = amount to dip
\n - tremolo bar down
n/ - tremolo bar up
/n\ - tremolo bar inverted dip
= - hold bend; also acts as connecting device for hammers/pulls
- volume swell (louder/softer)
x - on rhythm slash represents muted slash
o - on rhythm slash represents single note slash
Misc Legend
-----------
| - bar
|| - double bar
||o - repeat start
o|| - repeat end
*| - double bar (ending)
: - bar (freetime)
$ - Segno
& - Coda
Tempo markers - = BPM(8/16=s8/s16), where s8 = swing 8ths, s16 = swing 16ths
***************************************************************************************
***************************************************************************************

Important: The song above is NOT stored on the Chordie server. The original song is hosted at www.azchords.com. Chordie works as a search engine and provides on-the-fly formatting. Chordie does not index songs against artists'/composers' will. To remove this song please click here.

Text color:
Chord color:
Chord grids: 
Font size:    
Page size: 

Ab5 D5 E5 Eb5 F#5 F5 G5
Rate #1 of 2 versions

Login - add to songbook

SHARE PAGE  



You need to log in to post comments