Guitar Tabs, Chords and Lyrics
Major upgrade!! After one year development the new version of Chordie is now online! Please give feedback.


City of Satan   Turboneger

 
 -----------------------------------------------------------------------------

 


 CITY OF SATAN - Turbonegro


 

 
 -----------------------------------------------------------------------------

 


 


 Tuning: Standart


 


 A great, little bit different Turbonegro Song, but one of my favorite to play.


 I play it that way, also on concerts.


 


 [-----]INTRO


 [-----]  


 

 
 e|------------------|
 H|------------------|
 G|------------------|

 


 D|0h2-2~~~~0h2-2~~~~|


 

 
 A|------------------|
 E|------------------|
 ----------

 


 MAIN THEME


 

 
 ----------
 e|--------------------------------|
 H|------------8-------------------|
 G|7-9---------7---7-9-------------|
 D|7-9---------5---7-9-------------|
 A|5-7---------5---5-7-------------|
 E|5-7-------------5-7-------------|
 ------

 


 BRIDGE


 

 
 ------

 


 


 Gtr.1


 

 
 e|-------||----------||----------------|
 H|-------||----------||----------------|
 G|2------||----5-----||----------------|
 D|2------||--4-5-----||7-7-7-7-7-------|
 A|0------||0-2-3-----||5-5-5-5-5-------|
 E|-------||----------||----------2b3---|

 


 


 Gtr.2


 

 
 e|-------||----------||----------------|
 H|-------||----1-----||----------------|
 G|2------||----2-----||----------------|
 D|2------||----2-----||7-7-7-7-7-------|
 A|0------||0---0-----||5-5-5-5-5-------|
 E|-------||--3-------||----------2b3---|
 -------

 


 REFRAIN


 

 
 -------
 e|--------------------------------|
 H|------------8-------------------|
 G|7-9---------7---7-9-------------|
 D|7-9---------5---7-9-------------|
 A|5-7---------5---5-7-------------|
 E|5-7-0-0-0-0-----5-7-0-0-0-0-0-0-|
 -------

 


 REFRAIN (2nd Part)


 

 
 -------

 


 


 Gtr.1 (play it 4 times)


 

 
 e|--------------------------------|
 H|--------------------------------|
 G|5-----7---------7-----9---------|
 D|5-----7---------7-----9---------|
 A|3-----5---------5-----7---------|
 E|--------------------------------|

 


 


 Gtr.2 (play it 2 times)


 

 
 e|3---------------0---------------||3---------------------------0-|
 H|3-----3-----------3p0-0---------||3-----3---------------------0-|
 G|0-----2---------------1---------||0-----2-----------------------|
 D|2-----0---------------2---------||2-----0-----------------------|
 A|3---------------------2---------||3---------------0h3h5-p3------|
 E|--------------------------------||-------------------------0----|
 -----------------

 


 LEAD GUITAR PARTS


 

 
 -----------------
 e|---------------||---------------|
 H|---------------||7br8-----------|
 G|---------------||-----9-7-------|
 D|2p0h2p0h2p0h2p0||---------9-7---|
 A|---------------||-------------10|
 E|---------------||---------------|
 e|-----------||----------||15~~14~~------------------------------------------
 H|-----------||-----15---||--------15b17-15b17~~17pbr15-12-----12-15p14p12-15
 G|-----------||14b16--14~||12~~11~~-----------------------14b15--------------
 D|-----5-----||----------||--------------------------------------------------
 A|5/7------5-||----------||--------------------------------------------------
 E|-----------||----------||--------------------------------------------------
 e|12-15p14p12-15b17--17p15----------------------15---------------------|
 H|------------------------17p15-17p15-15\13-15b17-15b17~~15p13p12-13b15|
 G|---------------------------------------------------------------------|
 D|---------------------------------------------------------------------|
 A|---------------------------------------------------------------------|
 E|---------------------------------------------------------------------|
 e|--------------------------------------------------------------|
 H|--------------------------------------------------------------|
 G|--------------------------------------7~----------------------|
 D|------0---------------------------0-2---8b9----4-3---2-1---0--|
 A|----2---4p0--------5--5-4--4------0-2------------------------4|
 E|0-3--------3p0-3-0-----------3--3-----------------------------|
 ---------

 


 INTERLUDE


 

 
 ---------
 e|------------------------------------------------------------------|
 H|--8---8-----------6---6-----------4---4-----------6---6-----------|
 G|--7---7-5~--------5---5-5~--------3---3-1~--------5---5-3~--------|
 D|--5---5-5~--------3---3-5~--------1---1-1~--------3---3-3~--------|
 A|0---0---------------0-----------0---0-----------0---0-------------|
 E|----------------0-------------------------------------------------|

 


 [1] [2] [3] [4] [1] [2] [3] [4] [1] [2] [3] [4] [1] [2] [3] [4] 


 

 
 e|----------------------------------------------------------------
 H|----------------------------------------------------------------
 G|777-6-7-9---12--9-129-1214--------15141514--12----5-7-9-5---7---
 D|----------------------------------------------------------------
 A|555-4-5-7---10--7-107-1012--------13121312--10----3-5-7-3---5---
 E|----------------------------------------------------------------

 


 [1] [2] [3] [4] [1] [2] [3] [4] [1] [2] [3] [4] [1] [2] [3] [4] 


 


 

 
 e|----------------------------------------------------------------|
 H|----------------------------------------------------------------|
 G|7-7-6-7-9---7-9-12--9-1214--------15141514--12----5-7-1010--12--|
 D|----------------------------------------------------------------|
 A|5-5-4-5-7---5-7-10--7-1012--------13121312--10----3-5-8-8---10--|
 E|----------------------------------------------------------------|


Important: The song above is NOT stored on the Chordie server. The original song is hosted at www.azchords.com. Chordie works as a search engine and provides on-the-fly formatting. Chordie does not index songs against artists'/composers' will. To remove this song please click here.

This song is displayed as text-only. Transposing and tuning is only available for chordpro-songs.
Rate #1 of 1 versions

Jango Player

Login - add to songbook

SHARE PAGE  




You need to log in to post comments