Guitar Tabs, Chords and Lyrics
Update 25:10. 13:00. Site is back up running again. Songbooks are recovered. Woring on getting search back up..


Summer Song  Turn

OK this song is actually played with the guitar tuned down one whole step. But could you be arsed tuning it down for one song (Or three if you‚??re playing the Turn back catalogue)?‚?¶ I thought not, here‚??s how to do it in concert pitch, a second guitar plays the fills but I‚??ll write them out anyway cuz it breaks the monotony of the chords and I‚??m just that nice a guy. Enjoy‚?¶
The chords used:
[Gm] [G#] [D] [F] [C] [Eb] [Bb]  
 
 e---3------4------5------1-----3-----6------1-
 b---3------4------7------1-----5-----8------3-
 g---3------5------7------2-----5-----8------3-
 d---5------6------7------3-----5-----8------3-
 a---5------6------5------3-----3-----6------1-
 E---3------4-------------1--------------------

Fill (The notes in brackets are not played the last times)
 
 e----------------------------
 b------------------------(8)-
 g-\7-5-----------(7)---------
 d------8-7-5---5-----(5)-----
 a------------8---------------
 E----------------------------

Intro: Acoustic guitar.
Gm for 2 bars
Verse 1
[G#]She put her [D]hands over her [Gm]face so [F]I couldn‚??t see,
[G#]The way she [D]looked as I walked [Gm]in and [F]she prepared to leave,
[G#]I wasn‚??[D]t sure just what yo[Gm]u done but yo[F]u couldn‚??t look[C] at me
So [Eb]I think you [D]done it (Pause)
Chorus 1
You took [Eb]something oh so [D]beautiful and [Gm]sweet as a [F]summer [C]song
And [Eb]I think you [D]done her wron[Gm]g[Bb] [Gm]
Verse 2
[G#]In this scene the [D]phone rings out and [Gm]she moves [F]for the door
[G#]I watch you [D]standing up your [Gm]eyes go [F]red and sore
G# D (Fill) Gm F
[ABBBBB] [ABBB] [ABBBB] [ABBBBB]  
[Eb]And I think you [D]done it
Chorus 2
Eb D Gm F C (Fill 2)
You took something oh so beautiful and sweet as a summer song
And [Eb]I think you [D]done her [Gm]wrong (pause)
Middle 8:
[Gm] [Bb] Yes [C]I think you [Eb]done her wrong
[Gm] [Bb] Yes [C]I think you [Eb]done it
Solo
[Gm] [Bb] [C] [Eb] [Gm] [Bb] [C] [Eb]  
 
 e-------------------------------------------------------
 b-8b----------------------------------------------------
 g-------7b----5b-----5h7-5---------------5-----7---8-7--
 d--------------------------8-5---5-8-5-7---7-8---8------
 a------------------------------8------------------------
 E-------------------------------------------------------

Chorus 2
Eb D Gm F C (Fill)
You took something oh so beautiful and sweet as a summer song
And [Eb]I think you [D]done her‚?¶
Eb D Gm F C (Fill)
You took something oh so beautiful and sweet as a summer song
And [Eb]I think you [D]done it, [Eb]I think you [D]done it, [Eb]yes I think you [D]done
her [Gm]wrong
Outro: Because we‚??re playing a guitar in concert pitch we cannot get the low notes on the recording that Ollie does so we‚??re taking it up an octave people‚?¶
[Gm] [F] [C] [Eb] [D]  
 
 e-------10---------8--------------8------------6-----5---
 b-------11---------10---------8-----8----------8----7----
 g-------12---------10-----------9-----9--------8---7-----
 d----12----12---10----10---10-----------10---8----7------
 a-10----------8----------------------------6-----5-------
 E------------------------8-------------------------------

Ooooo Ooooo Ooo Oo Oo Oo Ooo Ooooo Oooo Oo Oo Ooo Ooooooooo.

Important: The song above is NOT stored on the Chordie server. The original song is hosted at www.azchords.com. Chordie works as a search engine and provides on-the-fly formatting. Chordie does not index songs against artists'/composers' will. To remove this song please click here.

Text color:
Chord color:
Chord grids: 
Font size:    
Page size: 

Bb C D Eb F G# Gm
Rate #1 of 2 versions

Jango Player

Login - add to songbook

SHARE PAGE  



You need to log in to post comments