Guitar Tabs, Chords and Lyrics
Server problems seems to be fixed. Chordie has been experiencing problems with songs disappearing. These issues now seems to be fixed, but still verifying the fix. If you find anything strange, please email admin@chordie.com.


Air Catcher  twenty one pilots

[Intro] 
 
 e|-------------|---------------|--------------|--------------|---------2-7-11-14-|
 B|-----------1-|-1----------1--|-----------1--|---------0-1--|-----0-4-----------|
 G|-----2---2---|---2-----2-----|-----0---2----|--------------|-------------------|
 D|---2---2-----|-------2-------|---2---2------|-----4-2------|---4---------------|
 A|-0-----------|---------------|--------------|---3----------|-2-----------------|
 E|-------------|---------------|-3------------|-2------------|-------------------|

[D7] [Am] [C] [C(b5)] [B]  
[Verse 1] 
[D7] I don't fall slow like I used to
[Am] I fall straight down
[C] You've stolen my a[C(b5)]ir catcher
[B] That kept me safe and sound
[D7] My parachutes will guide me
[Am] Safely to ground
[C] But now the [C(b5)]cord's not working
And [B]I see you staring me down
[Cborus] 
[Em]I won't fall in
[C]Love with falling
[G]I will try to a[B]void
Those eyes
[Em] [C] [G] [B]  
[Verse 2] 
[D7] I think you would beat
The moon in a [Am]pretty contest
[C] And the moon just [C(b5)]happened to be
The [B]very first thing that I missed
[D7] I was doing fine on my own
And there[Am] wasn't much I lacked
[C] But you've stolen my [C(b5)]air catcher
And [B]I don't know if I want it back
[Cborus] 
[Em]I won't fall in
[C]Love with falling
[G]I will try to [B]avoid
Those eyes
[Verse 3] 
'Cause [Em]I'm not sure
I [C]want to give you
[G]Tools that can
De[B]stroy my heart
[Bridge] 
 
 e|-------0---|-------0--0--|
 B|-------0---|-------0--0--|
 G|-----------|-------------|
 D|-2---2-----|-2-2-2-------|
 A|-----------|-------------|
 E|-----------|-------------|

And I just don't say
 
 e|-------3---|-------3--3--|
 B|-------3---|-------3--3--|
 G|-0---0-----|-0-0-0-------|
 D|-----------|-------------|
 A|-----------|-------------|
 E|-----------|-------------|

What you want to hear
 
 e|-------5---|-------5--5--|
 B|-------5---|-------5--5--|
 G|-2---2-----|-2-2-2-------|
 D|-----------|-------------|
 A|-----------|-------------|
 E|-----------|-------------|

So I'll write my fears
 
 e|-----------|-------------|
 B|-------1---|-------3--3--|
 G|-------0---|-------2--2--|
 D|-----------|-------------|
 A|-4---4-----|-4-4-4-------|
 E|-----------|-------------|

[Em] And I don't believe
[G] In talking just to breathe
[Am] And falling selfish[C]ly
[Am]  
[Cborus] 
[Em]I won't fall in
[C]Love with falling
[G]I will try to a[B]void
Those eyes
[Outro] 
But [Em]now I'm here to
[C]Give you words as
[G]Tools that can
De[B]stroy my h[Em]eart

Important: The song above is NOT stored on the Chordie server. The original song is hosted at www.azchords.com. Chordie works as a search engine and provides on-the-fly formatting. Chordie does not index songs against artists'/composers' will. To remove this song please click here.

Text color:
Chord color:
Chord grids: 
Font size:    
Page size: 

Am B C D7 Em G
Rate #1 of 4 versions

Jango Player

Login - add to songbook

SHARE PAGE  




You need to log in to post comments