Guitar Tabs, Chords and Lyrics
Update 25:10. 13:00. Site is back up running again. Songbooks are recovered. Woring on getting search back up..


Out of Commission  Twin Peaks

(Intro)
[D] [C] [B] [Bb] [A]  
 
 e |--10--10--10--10--8---8---8---8---7--7--7--7--6--6--6??-6--5--|
 B |--10--10--10--10--8---8---8---8---7--7--7--7--6--6--6--6--5--|
 G |--11--11--11--11--9---9---9---9---8--8--8--8--7--7--7--7--6--|
 D |--12--12--12--12--10--10--10--10--9--9--9--9--8--8??-8-??8??-7--|
 A |--12--12--12--12--10--10--10--10--9--9--9--9--8--8??-8-??8??-7--|
 E |--10--10--10--10--8---8---8---8---7--7--7??-7--6--6??-6-??6--5--|

(Verse)
M[A]omma asked me w[F#m]here I've been
And I s[B]aid I went aw[D]ay
[A]She asked me [F#m]why I left
And I to[B]ld her I can't s[D]ay
There's de[B]bts I gotta p[D]ay
I mi[B]ght come back some d[D]ay
Ho[D]pped in the back of the '[C]95 Chevy and r[B]ode it to the co[Bb]ast[A]
[D] [C] [B] [Bb] [A]  
 
 e |--10--10--10--10--8---8---8---8---7--7--7--7--6--6--6??-6--5--|
 B |--10--10--10--10--8---8---8---8---7--7--7--7--6--6--6--6--5--|
 G |--11--11--11--11--9---9---9---9---8--8--8--8--7--7--7--7--6--|
 D |--12--12--12--12--10--10--10--10--9--9--9--9--8--8??-8-??8??-7--|
 A |--12--12--12--12--10--10--10--10--9--9--9--9--8--8??-8-??8??-7--|
 E |--10--10--10--10--8---8---8---8---7--7--7??-7--6--6??-6-??6--5--|

(Solo)
 
 e |-------------------------------------------------------------------|
 B |-------------------------------------------------------------------|
 G |-16b18--16--14--16--14----14--16b18r16p14-----14-------------------|
 D |-----------------------16------------------16----------------------|
 A |-------------------------------------------------------------------|
 E |-------------------------------------------------------------------|
 e |-------------------------------------------------------------------|
 B |----------17b19-??17---14h17p14-----14------------------------------|
 G |--16--14------------------------16----16b18r16??-14--16--14---------|
 D |-------------------------------------------------------------------|
 A |-------------------------------------------------------------------|
 E |-------------------------------------------------------------------|
 e |-------------------------------------------------------------------|
 B |-------------------------------------------------------------------|
 G |----14-??16b18--16--14--16??-14----14--16b18r16p14----14-------------|
 D |-16---------------------------16-----------------16----------------|
 A |-------------------------------------------------------------------|
 E |-------------------------------------------------------------------|
 e |-------------------------------------------------------------------|
 B |-----------------17-------17---------------------------------------|
 G |--16--14---16b18----16b18-----16b18---16--14-??13--11---------------|
 D |-------------------------------------------------------------------|
 A |-------------------------------------------------------------------|
 E |-------------------------------------------------------------------|

(Verse)
Mo[A]mma asked me if I [F#m]got a job
And I to[B]ld her that I s[D]ell
[A]Asked her 'do you need some t[F#m]hings at home?'
And she to[B]ld me 'go to h[D]ell'
And I th[B]ink I might as w[D]ell
'Til th[B]en I'll surf the sw[D]ell
Ho[D]pped in the back of the '9[C]5 Chevy and ro[B]de it to the c[Bb]oast[A]
[D] [C] [B] [Bb] [A]  
 
 e |--10--10--10--10--8---8---8---8---7--7--7--7--6--6--6??-6--5--|
 B |--10--10--10--10--8---8---8---8---7--7--7--7--6--6--6--6--5--|
 G |--11--11--11--11--9---9---9---9---8--8--8--8--7--7--7--7--6--|
 D |--12--12--12--12--10--10--10--10--9--9--9--9--8--8??-8-??8??-7--|
 A |--12--12--12--12--10--10--10--10--9--9--9--9--8--8??-8-??8??-7--|
 E |--10--10--10--10--8---8---8---8---7--7--7??-7--6--6??-6-??6--5--| 


Important: The song above is NOT stored on the Chordie server. The original song is hosted at www.azchords.com. Chordie works as a search engine and provides on-the-fly formatting. Chordie does not index songs against artists'/composers' will. To remove this song please click here.

Text color:
Chord color:
Chord grids: 
Font size:    
Page size: 

A B Bb C D F#m
Rate #1 of 1 versions

Login - add to songbook

SHARE PAGE  



You need to log in to post comments