Guitar Tabs, Chords and Lyrics
Server problems seems to be fixed. Chordie has been experiencing problems with songs disappearing. These issues now seems to be fixed, but still verifying the fix. If you find anything strange, please email admin@chordie.com.


Never Say Never  Ty England

INTRO: D D G G D D G G D A D D (with lead one)
[D]I was doing all right, I was minding my business
[G]Thinking to myself what a great life this is
[D]Cruising through the country, rockin' to the radi[A]o
I was [D]through with love, all the fussing and fighting
[G]It didn't seem worth the thunder and lightning
[D]Made up my mind, I was [A]living my life a[D]lone
(D) D G A (with lead two)
[D]Just when my head was getting clearer
[G]I took a little glance in the rearview mirror
[D]Did a double take 'cause I couldn't believe my [A]eyes
[D]She was right on my bumper in a drop top Mustang
[G]Long hair flying, pulling in the fast lane
[D]Stepped on the pedal 'cause I [A]couldn't let her pass me [D]by
CHORUS: Well you [G]never can say [D]never
When it [G]comes right down to [A]love
Even [G]if you say for[D]ever
You won't [D]ever, [A]ever get e[D]nough
(D) D G G D A D D (with lead three)
[D]I can't count the times I've been heart busted
[G]Threw up my hands thoroughly disgusted
[D]Swearing I was never gonna take that fall a[A]gain
[D]But no sooner said then she turned the corner
[G]Suddendly I'm a born again goner
[D]Telling myself this [A]one will never [D]end
CHORUS
[G]Oh [D]You won't ever, [A]ever get en[D]ough
(D) D G G D A D D (with lead four)
LEAD #1 (each measure is actually two)
[D] [G]  
 
 |---------------------------|---------------------------|
 |---------------------------|---------------------------|
 |-7-------------------------|---------------------------|
 |-7--_--7--_--7--_--7-7-----|-0--_--0--_--0--_--0--_--0-|
 |---7-9---7-9---7-9-----9-7-|---0-2---0-2---0-2---0-2---|
 |---------------------------|---------------------------|

[D] [G]  
 
 |---------------------------|---------------------------|
 |---------------------------|---------------------------|
 |-7-------------------------|---------------------------|
 |-7--_--7--_--7--_--7-7-----|-0--_--0--_--0--_--0--_--0-|
 |---7-9---7-9---7-9-----9-7-|---0-2---0-2---0-2---0-2---|
 |---------------------------|---------------------------|

[D] [A] [D]  
 
 |-------------------------|---------------------------|
 |-------------------------|---------------------------|
 |-7-----------------------|---------------------------|
 |-7--_--7-7-------------4-|------9-7--_---_-----------|
 |---7-9-----9-7-0-4-7-7---|-5--------7-(9)-7-5--------|
 |-------------------------|---------------------------|

LEAD #2 (each measure is actually two)
[D] [G] [A] [(D)]  
 
 |---------------------------|-------------------------|----|
 |---------------------------|-------------------------|----|
 |-7-------------------------|-------------------------|----|
 |-7--_--7--_--7--_--7-7-----|-0--_--0---------------4-|----|
 |---7-9---7-9---7-9-----9-7-|---0-2---0-9-7-0-4-7-7---|-5--|
 |---------------------------|-------------------------|----|

LEAD #3 (each measure is actually two)
[D] [G]  
 
 |---------------------------|---------------------------|
 |---------------------------|---------------------------|
 |-7-------------------------|---------------------------|
 |-7--_--7--_--7--_--7-7-----|-0--_--0--_--0--_--0--_--0-|
 |---7-9---7-9---7-9-----9-7-|---0-2---0-2---0-2---0-2---|
 |---------------------------|---------------------------|

[D] [A] [D]  
 
 |-------------------------|---------------------------|
 |-------------------------|---------------------------|
 |-7-----------------------|---------------------------|
 |-7--_--7-7-------------4-|---------------------------|
 |---7-9-----9-7-0-4-7-7---|-5-------------------------|
 |-------------------------|---------------------------|

LEAD #4 (each measure is actually two)
[D] [G]  
 
 |---------------------------|---------------------------|
 |---------------------------|---------------------------|
 |-7-------------------------|---------------------------|
 |-7--_--7--_--7--_--7-7-----|-0--_--0--_--0--_--0--_--0-|
 |---7-9---7-9---7-9-----9-7-|---0-2---0-2---0-2---0-2---|
 |---------------------------|---------------------------|

[D] [A] [D]  
 
 |-------------------------|---------------------------||
 |-------------------------|---------------------------||
 |-7-----------------------|---------------------------||
 |-7--_--7-7-------------4-|------9-7--_---_-----------||
 |---7-9-----9-7-0-4-7-7---|-5--------7-(9)-7-5--------||
 |-------------------------|---------------------------|| 


Important: The song above is NOT stored on the Chordie server. The original song is hosted at www.azchords.com. Chordie works as a search engine and provides on-the-fly formatting. Chordie does not index songs against artists'/composers' will. To remove this song please click here.

Text color:
Chord color:
Chord grids: 
Font size:    
Page size: 

A D G
Rate #1 of 1 versions

Login - add to songbook

SHARE PAGE  



You need to log in to post comments