Guitar Tabs, Chords and Lyrics
Server problems seems to be fixed. Chordie has been experiencing problems with songs disappearing. These issues now seems to be fixed, but still verifying the fix. If you find anything strange, please email admin@chordie.com.


Always Love You  Tyrone Wells

Intro:
 
 e|-------------------------------------------------------------------|
 B|--3-------3-------5-------5------7-------7------8-------8----------|
 G|------0-----0---------0-----0--------0-----0--------0-----0--------| (2x)
 D|----0---------0-----0---------0----0---------0----0---------0------|
 A|-------------------------------------------------------------------|
 E|--3-----3---------5-----5--------7-----7--------8-----8------------|

For the 2nd line of the intro play the 8th fret 4 times then transition to verse
 
 e|-------------------------------|
 B|--8-------8------8-------8-----|
 G|------0-----0--------0-----0---|
 D|----0---------0----0---------0-|
 A|-------------------------------|
 E|--8-----8--------8-----8-------|

Verse 1:
[G]In my eyes you'll always be a [C]princess and the world to me
 
 e|---------------------------------------------------------------|
 B|--3-------3------3-------3------3-------3------3-------3-------|
 G|------0-----0--------0-----0--------0-----0--------0-----0-----|
 D|----0---------0----0---------0----2---------2----2---------2---|
 A|--------------------------------3-----3--------3-----3---------|
 E|--3-----3--------3-----3---------------------------------------|

More [G]beautiful than any twinkling[D/F#] star
 
 e|---------------------------------------------------------------|
 B|--3-------3------3-------3------3-------3------3-----3---------|
 G|------0-----0--------0-----0--------2-----2--------2---2-------|
 D|----0---------0----0---------0----0---------0----0-------0-----|
 A|---------------------------------------------------------------|
 E|--3-----3--------3-----3--------2-----2--------2---------------|

[G]I will guard your innocence and [C]all I ask in recompense
 
 e|---------------------------------------------------------------|
 B|--3-------3------3-------3------3-------3------3-------3-------|
 G|------0-----0--------0-----0--------0-----0--------0-----0-----|
 D|----0---------0----0---------0----2---------2----2---------2---|
 A|--------------------------------3-----3--------3-----3---------|
 E|--3-----3--------3-----3---------------------------------------|

Is that you [G]know the truth inside your father's[D/F#] heart
 
 e|---------------------------------------------------------------|
 B|--3-------3------3-------3------3-------3------3-----3---------|
 G|------0-----0--------0-----0--------2-----2--------2---2p0-----|
 D|----0---------0----0---------0----0---------0----0-------------|
 A|---------------------------------------------------------------|
 E|--3-----3--------3-----3--------2-----2--------2---------------|

Pre chorus:
[Am] I hope you reme[C]mber
 
 e|---------------------------------------------------------------|
 B|--1-------1------1-------1------1-------1-----0h1------1-------|
 G|------2-----2--------2-----2--------0-----0---------0-----0----|
 D|----2---------2----2---------2----2---------2-----2---------2--|
 A|--0-----0--------0-----0--------3-----3-------3-------3--------|
 E|---------------------------------------------------------------|

[Am] Don't you dare forget
 
 e|-------------------------------------|
 B|--1-------1------1-------1------3----|
 G|------2-----2--------2-----2---------|
 D|----2---------2----2---------2-------|
 A|--0-----0--------0-----0--------5----|
 E|-------------------------------------|

Chorus:
I will alw[C]ays love you
 
 e|---------------------------------------------------------------|
 B|--3-------3------3-------3------3-------3------3-------3-------|
 G|------0-----0--------0-----0--------0-----0--------0-----0-----|
 D|----2---------2----2---------2----2---------2----2---------2---|
 A|--3-----3--------3-----3--------3-----3--------3-----3---------|
 E|---------------------------------------------------------------|

I will al[Em]ways love you, it's just a simple
 
 e|---------------------------------------------------------------|
 B|--3-------3------3-------3------3-------3------3-------3-------|
 G|------0-----0--------0-----0--------0-----0--------0-----0-----|
 D|----2---------2----2---------2----2---------2----2---------2---|
 A|---------------------------------------------------------------|
 E|--0-----0--------0-----0--------0-----0--------0-----0---------|

T[C]ruth but what else could I[D/F#] do
 
 e|---------------------------------------------------------------|
 B|--3-------3------3-------3------3-------3------3-------3-------|
 G|------0-----0--------0-----0--------2-----2--------2-----2-----|
 D|----2---------2----2---------2----0---------0----0---------0---|
 A|--3-----3--------3-----3---------------------------------------|
 E|--------------------------------2-----2--------2-----2---------|

I will a[Em]lways [D/F#] love you
 
 e|---------------------------------------------------------------|
 B|--3-------3------3-------3------3-------3------3-------3-------|
 G|------0-----0--------0-----0--------2-----2--------2-----2-----|
 D|----2---------2----2---------2----0---------0----0---------0---|
 A|---------------------------------------------------------------|
 E|--0-----0--------0-----0--------2-----2-------2-----2----------|

Refrain: (Intro Line 2)
 
 e|---------------------------------------------------------------|
 B|--3-------3-------5-------5------7-------7------8-------8------|
 G|------0-----0---------0-----0--------0-----0--------0-----0----|
 D|----0---------0-----0---------0----0---------0----0---------0--|
 A|---------------------------------------------------------------|
 E|--3-----3---------5-----5--------7-----7--------8-----8--------|
 e|-------------------------------|
 B|--8-------8------8-------8-----|
 G|------0-----0--------0-----0---|
 D|----0---------0----0---------0-|
 A|-------------------------------|
 E|--8-----8--------8-----8-------|

Verse 2:
Y[G]ou will grow up way to fast and [C]leave me wishing for the past
 
 e|---------------------------------------------------------------|
 B|--3-------3------3-------3------3-------3------3-------3-------|
 G|------0-----0--------0-----0--------0-----0--------0-----0-----|
 D|----0---------0----0---------0----2---------2----2---------2---|
 A|--------------------------------3-----3--------3-----3---------|
 E|--3-----3--------3-----3---------------------------------------|

Back [G]when you were still a daddy'[D/F#]s girl
 
 e|---------------------------------------------------------------|
 B|--3-------3------3-------3------3-------3------3-----3---------|
 G|------0-----0--------0-----0--------2-----2--------2---2-------|
 D|----0---------0----0---------0----0---------0----0-------0-----|
 A|---------------------------------------------------------------|
 E|--3-----3--------3-----3--------2-----2--------2---------------|

And[G] so I'll hold on to the memories of that[C] little girl upon my knee
 
 e|---------------------------------------------------------------|
 B|--3-------3------3-------3------3-------3------3-------3-------|
 G|------0-----0--------0-----0--------0-----0--------0-----0-----|
 D|----0---------0----0---------0----2---------2----2---------2---|
 A|--------------------------------3-----3--------3-----3---------|
 E|--3-----3--------3-----3---------------------------------------|

[G]That little girl that forever ch[D/F#]anged the world
 
 e|---------------------------------------------------------------|
 B|--3-------3------3-------3------3-------3------3-----3---------|
 G|------0-----0--------0-----0--------2-----2--------2---2p0-----|
 D|----0---------0----0---------0----0---------0----0-------------|
 A|---------------------------------------------------------------|
 E|--3-----3--------3-----3--------2-----2--------2---------------|

Pre chorus:
[Am] I hope you rem[C]ember
 
 e|---------------------------------------------------------------|
 B|--1-------1------1-------1------1-------1-----0h1------1-------|
 G|------2-----2--------2-----2--------0-----0---------0-----0----|
 D|----2---------2----2---------2----2---------2-----2---------2--|
 A|--0-----0--------0-----0--------3-----3-------3-------3--------|
 E|---------------------------------------------------------------|

[Am] Don't you dare forget
 
 e|-------------------------------------|
 B|--1-------1------1-------1------3----|
 G|------2-----2--------2-----2---------|
 D|----2---------2----2---------2-------|
 A|--0-----0--------0-----0--------5----|
 E|-------------------------------------|

Chorus:
I will a[C]lways love you
 
 e|---------------------------------------------------------------|
 B|--3-------3------3-------3------3-------3------3-------3-------|
 G|------0-----0--------0-----0--------0-----0--------0-----0-----|
 D|----2---------2----2---------2----2---------2----2---------2---|
 A|--3-----3--------3-----3--------3-----3--------3-----3---------|
 E|---------------------------------------------------------------|

I will a[Em]lways love you, it's just a simple
 
 e|---------------------------------------------------------------|
 B|--3-------3------3-------3------3-------3------3-------3-------|
 G|------0-----0--------0-----0--------0-----0--------0-----0-----|
 D|----2---------2----2---------2----2---------2----2---------2---|
 A|---------------------------------------------------------------|
 E|--0-----0--------0-----0--------0-----0--------0-----0---------|

T[C]ruth but what else could I[D/F#] do
 
 e|---------------------------------------------------------------|
 B|--3-------3------3-------3------3-------3------3-------3-------|
 G|------0-----0--------0-----0--------2-----2--------2-----2-----|
 D|----2---------2----2---------2----0---------0----0---------0---|
 A|--3-----3--------3-----3---------------------------------------|
 E|--------------------------------2-----2--------2-----2---------|

I will al[Em]ways [D/F#]love you
 
 e|---------------------------------------------------------------|
 B|--3-------3------3-------3------3-------3------3-------3-------|
 G|------0-----0--------0-----0--------2-----2--------2-----2-----|
 D|----2---------2----2---------2----0---------0----0---------0---|
 A|---------------------------------------------------------------|
 E|--0-----0--------0-----0--------2-----2-------2-----2----------|

Bridge:
And when your [Em]heart breaks my heart will break when your drea[C]ms
come true my dreams do
 
 e|---------------------------------------------------------------|
 B|--3-------3------3-------3------3-------3------3-------3-------|
 G|------0-----0--------0-----0--------0-----0--------2-----2-----|
 D|----2---------2----2---------2----2---------2----0---------0---|
 A|--------------------------------3-----3--------3-----3---------|
 E|--0-----0--------0-----0---------------------------------------|

It d[G]oesn't matter what you're going [D/F#]through
 
 e|------------------------------------------|
 B|--3-------3------3-------3------3---------|
 G|------0-----0--------0-----0--------------|
 D|----0---------0----0---------0------------|
 A|------------------------------------------|
 E|--3-----3--------3-----3--------2---------|

Chorus:
See I wi[C]ll always love you
 
 e|---------------------------------------------------------------|
 B|--3-------3------3-------3------3-------3------3-------3-------|
 G|------0-----0--------0-----0--------0-----0--------0-----0-----|
 D|----2---------2----2---------2----2---------2----2---------2---|
 A|--3-----3--------3-----3--------3-----3--------3-----3---------|
 E|---------------------------------------------------------------|

I will a[Em]lways love you, it's just a simple
 
 e|---------------------------------------------------------------|
 B|--3-------3------3-------3------3-------3------3-------3-------|
 G|------0-----0--------0-----0--------0-----0--------0-----0-----|
 D|----2---------2----2---------2----2---------2----2---------2---|
 A|---------------------------------------------------------------|
 E|--0-----0--------0-----0--------0-----0--------0-----0---------|

T[C]ruth and what else could I[D/F#] do
 
 e|---------------------------------------------------------------|
 B|--3-------3------3-------3------3-------3------3-------3-------|
 G|------0-----0--------0-----0--------2-----2--------2-----2-----|
 D|----2---------2----2---------2----0---------0----0---------0---|
 A|--3-----3--------3-----3---------------------------------------|
 E|--------------------------------2-----2--------2-----2---------|

I will a[C]lways love you
 
 e|---------------------------------------------------------------|
 B|--3-------3------3-------3------3-------3------3-------3-------|
 G|------0-----0--------0-----0--------0-----0--------0-----0-----|
 D|----2---------2----2---------2----2---------2----2---------2---|
 A|--3-----3--------3-----3--------3-----3--------3-----3---------|
 E|---------------------------------------------------------------|

Oh I wil[Em]l always love you, sometimes you will
 
 e|---------------------------------------------------------------|
 B|--3-------3------3-------3------3-------3------3-------3-------|
 G|------0-----0--------0-----0--------0-----0--------0-----0-----|
 D|----2---------2----2---------2----2---------2----2---------2---|
 A|---------------------------------------------------------------|
 E|--0-----0--------0-----0--------0-----0--------0-----0---------|

[C]Fly, sometimes you will[D/F#] fall till the day I
 
 e|---------------------------------------------------------------|
 B|--3-------3------3-------3------3-------3------3-------3-------|
 G|------0-----0--------0-----0--------2-----2--------2-----2-----|
 D|----2---------2----2---------2----0---------0----0---------0---|
 A|--3-----3--------3-----3---------------------------------------|
 E|--------------------------------2-----2--------2-----2---------|

[C]Die, daughter through it[D/F#] all
 
 e|---------------------------------------------------------------|
 B|--3-------3------3-------3------3-------3------3-------3-------|
 G|------0-----0--------0-----0--------2-----2--------2-----2-----|
 D|----2---------2----2---------2----0---------0----0---------0---|
 A|--3-----3--------3-----3---------------------------------------|
 E|--------------------------------2-----2--------2-----2---------|

I will al[Em]ways l[D/F#]ove you
 
 e|-----------------------------------|
 B|--3-------3------3-------3------3--|
 G|------0-----0--------0-----0-------|
 D|----2---------2----2---------2-----|
 A|-----------------------------------|
 E|--0-----0--------0-----0--------2--|

Outro: (Repeat entire intro)
 
 e|-------------------------------------------------------------------|
 B|--3-------3-------5-------5------7-------7------8-------8----------|
 G|------0-----0---------0-----0--------0-----0--------0-----0--------| (2x)
 D|----0---------0-----0---------0----0---------0----0---------0------|
 A|-------------------------------------------------------------------|
 E|--3-----3---------5-----5--------7-----7--------8-----8------------|

(He starts to play softer and a bit slower then does a sow down strum)
 
 e|----------------------------------3--|
 B|--8-------8------8-------8--------3--|
 G|------0-----0--------0-----0------0--|
 D|----0---------0----0---------0----0--|
 A|----------------------------------2--|
 E|--8-----8--------8-----8----------3--| 


Important: The song above is NOT stored on the Chordie server. The original song is hosted at www.azchords.com. Chordie works as a search engine and provides on-the-fly formatting. Chordie does not index songs against artists'/composers' will. To remove this song please click here.

Text color:
Chord color:
Chord grids: 
Font size:    
Page size: 

Am C D/F# Em G
Rate #1 of 1 versions

Login - add to songbook

SHARE PAGE  



You need to log in to post comments