Guitar Tabs, Chords and Lyrics
Major upgrade!! After one year development the new version of Chordie is now online! Please give feedback.


Miracle Drug  U2

Tono: D
Intro: D A Bm G
 
 E|-----------------7----|
 B|---10-----------------|
 G|-7----9--7h9-7-----7--|
 D|----------------------|
 A|----------------------|
 E|----------------------|

[D]I want to tr[A]ip inside your h[Bm]ead
Spend the d[G]ay there?
[D]To hear the [A]things you haven't s[Bm]aid
And see what you might s[G]ee
[D]I want to h[A]ear you when you c[Bm]all
Do you feel any[G]thing at a[D]ll?
I want to s[A]ee your thoughts take [Bm]shape
And wa[G]lk right out
Fr[G]eedom has a [A]scent
Like the t[D]op of a new born [Em]baby's head
Th[G]e songs are in you[A]r eyes
I [D]see them when you [Em]smile
I'v[G]e seen enough I'm not [A]giving up
On a [Bm]miracle drug[G]
 
 E|-----------------7----|
 B|---10-----------------|
 G|-7----9--7h9-7-----7--|
 D|----------------------|
 A|----------------------|
 E|----------------------|

Of[D] science an[A]d the human h[Bm]eart
There is no [G]limit
[D]There is no [A]failure here swe[Bm]etheart
Just when yo[G]u quit?
[D]I am you [A]and you are m[Bm]ine
Love makes non[G]sense of space
And [G]time? will [A]disappear
[D]Love and logic [Em]keep us clear
R[G]eason is on[A] our side, [D]love?[Em]
[G]The songs are in yo[A]ur eyes
[D]I see them when yo[Em]u smile
[G]I've had enough o[A]f romantic lov[D]e
I'd give it up, yeah, I'd g[Em]ive it up
F[G]or a miracle, [A]a miracle drug, a m[Bm]iracle drug
Solo:
 
 E|---------------------------------------------------------------------------------------|
 B|---------------------------------------------------------------------------------------|
 G|-2/7--6/7/6/2--2/4~~--4/7~~--7/9~~--7-6/4--4/2/6/2-------------------------------------|
 D|----------------------------------------------------4/2/7/4----------------------------|
 A|---------------------------------------------------------------------------------------|
 E|---------------------------------------------------------------------------------------|
 E|-12-12-12-12-12-12-12--14-14-14-14-14-14-14--5-5-5-5-5-5-5--7-7-7-7-7-7-7--------------|
 B|---------------------------------------------------------------------------------------|
 G|---------------------------------------------------------------------------------------|
 D|---------------------------------------------------------------------------------------|
 A|---------------------------------------------------------------------------------------|
 E|---------------------------------------------------------------------------------------|
 E|-15/17-17-17-17--15-15-15-15--14-14-14-14--12-12-12-12--14-14-14-14--10-10-10-10--7-7-7-7--|
 B|-------------------------------------------------------------------------------------------|
 G|-------------------------------------------------------------------------------------------|
 D|-------------------------------------------------------------------------------------------|
 A|-------------------------------------------------------------------------------------------|
 E|-------------------------------------------------------------------------------------------|

God I need your help tonight
[G]Beneath the noise
Belo[A]w the din
I[D] hear a voice
It's w[Em]hisering
In s[G]cience and in med[A]icine
"I [D]was a stranger
You t[Em]ook me in"
The [G]songs are in your [A]eyes
I [D]see them when you [Em]smile
I'v[G]e had enough of r[A]omantic love
I'[D]d give it up, yeah,[Em] I'd give it up
F[G]or a mira[A]cle, [D]miracle [Em]drug
[G]Miracl[A]e, [D]miracle d[Em]rug[Bm]

Important: The song above is NOT stored on the Chordie server. The original song is hosted at www.azchords.com. Chordie works as a search engine and provides on-the-fly formatting. Chordie does not index songs against artists'/composers' will. To remove this song please click here.

Text color:
Chord color:
Chord grids: 
Font size:    
Page size: 

A Bm D Em G
Rate #1 of 3 versions

Jango Player

Login - add to songbook

SHARE PAGE  




You need to log in to post comments