Guitar Tabs, Chords and Lyrics
Server problems seems to be fixed. Chordie has been experiencing problems with songs disappearing. These issues now seems to be fixed, but still verifying the fix. If you find anything strange, please email admin@chordie.com.


Act of Depression   Underoath

 
 --------------------------------------------

 


 ============================================


 

 
 ---- UNDERÃ?ATH ---- Acts Ã?f Depression ----

 


 ============================================


 

 
 --------------------------------------------

 


 


 


 Bass/clean guitar Intro


 


 [00:00--00:05] 


 [Bass]  

 
 G||--------------------------------------||
 D||--------------------------------------||
 A||--------------------------------------||
 D||-4-5-4-0-1~~------------------7777888-||

 


 pm| ||


 | ||


 |Guitar 1 [CLEAN] ||


 

 
 e||--------------------------------------||
 B||----------------11-12-11--------------||
 G||--------------------------------------||
 D||--------------------------------------||
 A||--------------------------------------||
 D||--------------------------------------||

 


 pm|


 "("All I ever wanted was someone to love me")"


 


 [00:06--00:11] 


 [Bass]  

 
 G||--------------------------------------||
 D||--------------------------------------||
 A||--------------------------------------||
 D||-4-5-4-0-1~~------------------7777888-||

 


 pm| ||


 | ||


 |Guitar 1 ||


 

 
 e||-----------------12-13-12-------------||
 B||-----------11-12----------12-11-------||
 G||--------------------------------------||
 D||--------------------------------------||
 A||--------------------------------------||
 D||--------------------------------------||

 


 pm|


 


 [00:12--00:17] 


 [Bass]  

 
 G||--------------------------------------||
 D||--------------------------------------||
 A||--------------------------------------||
 D||-4-5-4-0-1~~------------------7777888-||

 


 pm| ||


 | ||


 |Guitar 1 ||


 

 
 e||--------------------------------------||
 B||--11-12-11~~-----------------12~~~----||
 G||--------------------------------------||
 D||--------------------------------------||
 A||--------------------------------------||
 D||--------------------------------------||

 


 pm|


 


 [00:18--00:22] 


 [Bass]  

 
 G||--------------------------------------||
 D||--------------------------------------||
 A||--------------------------------------||
 D||-4-5-4-0-1~~------------------7777888-||

 


 pm| ||


 | ||


 |Guitar 1 ||


 

 
 e||-11-12-11~~---------------------------||
 B||-10-----------------------------------||
 G||--------------------------------------||
 D||--------------------------------------||
 A||--------------------------------------||
 D||--------------------------------------||

 


 pm|


 


 [00:23--00:34] 


 [Bass]  

 
 G||-----------------|--------------------||
 D||-----------------|--------------------||
 A||-----------------|--------------------||
 D||-4-5-4-0-1~~-----|------7-7-7-7-8-8-8-||

 


 pm| ||


 | |||-(2x)


 |Guitars [DISTORTION] ||


 

 
 e||-----------------|--------------------||
 B||-----------------|--------------------||
 G||-----------------|--------------------||
 D||-4-5-4-0-1~~-----|------7-7-7-7-8-8-8-||
 A||-4-5-4-0-1~~-----|------7-7-7-7-8-8-8-||
 D||-4-5-4-0-1~~-----|------7-7-7-7-8-8-8-||

 


 pm|


 (random screams.....)


 


 [00:34--01:01] 


 [Bass]  

 
 G||-----------------|--------------------||
 D||-----------------|--------------------||
 A||-----------------|--------------------||
 D||-4-5-4-0-1~~-----|------7-7-7-7-8-8-8-||

 


 pm| . . . . ||


 | |||-(5x)


 |Guitars ||


 

 
 e||-----------------|--------------------||
 B||-----------------|--------------------||
 G||-----------------|--------------------||
 D||-4-5-4-0-1~~-----|------7-7-7-7-8-8-8-||
 A||-4-5-4-0-1~~-----|------7-7-7-7-8-8-8-||
 D||-4-5-4-0-1~~-----|------7-7-7-7-8-8-8-||

 


 pm| . . . .


 


 [01:02--02:06] 


 [Bass]  

 
 G||-------------|-------------|----------||
 D||-------------|-------------|----------||
 A||-------------|-------------|----------||
 D||-4-5-4-0-1-0-|-4-5-4-0-1-0-|-7-8-7-0--|||

 


 pm| . . . . . . . . . . . . |


 | |


 |Guitars |


 

 
 e||-------------|-------------|----------|||
 B||-------------|-------------|----------||
 G||-------------|-------------|----------||
 D||-4-5-4-0-1-0-|-4-5-4-0-1-0-|-7-8-7-0--||
 A||-4-5-4-0-1-0-|-4-5-4-0-1-0-|-7-8-7-0--|||
 D||-4-5-4-0-1-0-|-4-5-4-0-1-0-|-7-8-7-0--||||

 


 pm| . . . . . . . . . . . . |||


 |||||-(8x)


 Bass |||


 

 
 G||-------------|----------|-------------||||
 D||-------------|----------|-------------|||
 A||-------------|----------|-------------||
 D||-12--11--8~~-|--------0-|--------0----|||

 


 pm| . . |


 | |


 |Guitars |


 

 
 e||-------------|----------|-------------|||
 B||-------------|----------|-------------||
 G||-7---6---3~~-|----------|-------------||
 D||-x---x---x---|--------0-|--------0----||
 A||-5---4---1~~-|--------0-|--------0----||
 D||-------------|--------0-|--------0----||

 


 pm| . .


 


 "I tried to cry out from the inside,


 but I guess my soul did not pour itself out enough"


 


 [02:07--02:34] 


 [Bass]  

 
 G||-------------|-------------|----------||
 D||-------------|-------------|----------||
 A||-------------|-------------|----------||
 D||-4-5-4-0-1-0-|-4-5-4-0-1-0-|-7-8-7----|||

 


 pm| . . . . . . . . . . . . ||


 | |||-(8x)


 |Guitars ||


 

 
 e||-------------|-------------|----------|||
 B||-------------|-------------|----------||
 G||-------------|-------------|----------||
 D||-4-5-4-0-1-0-|-4-5-4-0-1-0-|-7-8-7----||
 A||-4-5-4-0-1-0-|-4-5-4-0-1-0-|-7-8-7----||
 D||-4-5-4-0-1-0-|-4-5-4-0-1-0-|-7-8-7----||

 


 pm|


 


 [02:34--02:46] 


 [Bass]  

 
 G||--------|--------|--------|-----------||
 D||--------|--------|--------|-----------||
 A||--------|--------|--------|-----------||
 D||-6--0-0-|-5--0-0-|-3--0-0-|-3-5-6-0---|||

 


 pm| . . . . . . . ||


 | |||-(4x)


 |Guitars ||


 

 
 e||--------|--------|--------|-----------|||
 B||--------|--------|--------|-----------||
 G||--------|--------|--------|-----------||
 D||-6--0-0-|-5--0-0-|-3--0-0-|-3-5-6-0---||
 A||-6--0-0-|-5--0-0-|-3--0-0-|-3-5-6-0---||
 D||-6--0-0-|-5--0-0-|-3--0-0-|-3-5-6-0---||

 


 pm| . . . . . . .


 


 "Blood"


 


 [02:47--03:14] 


 [Bass]  

 
 G||--------|-------|--------|------------||
 D||--------|-------|--------|------------||
 A||--------|-------|--------|------------||
 D||-6---0--|-5---0-|--3---0-|--3-5-6-0---||

 


 pm| . . . .


 |


 |Guitars


 

 
 e||--------|-------|--------|------------||
 B||--------|-------|--------|------------||
 G||--------|-------|--------|------------||
 D||-6---0--|-5---0-|--3---0-|--3-5-6-0---||
 A||-6---0--|-5---0-|--3---0-|--3-5-6-0---||
 D||-6---0--|-5---0-|--3---0-|--3-5-6-0---||

 


 pm| . . . .


 


 "Blood on the walls, flaming black, blood on the walls,


 I saw you staring through the cracks,


 


 [03:14--03:37] 


 [Bass]  

 
 G||---------|---------|---------|---------|
 D||---------|---------|---------|---------|
 A||---------|---------|---------|---------|
 D||-0-0-0-0-|-0-0-0-0-|-0-0-0-0-|-0-0-0-0-||

 


 pm| . . . . . . . . . . . . . . . . ||


 | ||


 |Guitars ||


 

 
 e||---------|---------|---------|---------||
 B||---------|---------|---------|---------|
 G||---------|---------|---------|---------|
 D||-0-0-0-0-|-0-0-0-0-|-0-0-0-0-|-0-0-0-0-|
 A||-0-0-0-0-|-0-0-0-0-|-0-0-0-0-|-0-0-0-0-|
 D||-0-0-0-0-|-0-0-0-0-|-0-0-0-0-|-0-0-0-0-||

 


 pm| . . . . . . . . . . . . . . . . ||


 |||-(2x)


 Bass ||


 

 
 G||---------|---------|---------|---------||
 D||---------|---------|---------|---------|
 A||---------|---------|---------|---------|
 D||-1-1-1-1-|-1-1-1-1-|-1-1-1-1-|-1-1-1-1-||

 


 pm| . . . . . . . . . . . . . . . . ||


 | ||


 |Guitars ||


 

 
 e||---------|---------|---------|---------||
 B||---------|---------|---------|---------|
 G||---------|---------|---------|---------|
 D||-1-1-1-1-|-1-1-1-1-|-1-1-1-1-|-1-1-1-1-|
 A||-1-1-1-1-|-1-1-1-1-|-1-1-1-1-|-1-1-1-1-|
 D||-1-1-1-1-|-1-1-1-1-|-1-1-1-1-|-1-1-1-1-|

 


 pm| . . . . . . . . . . . . . . . .


 


 "No one was to know what was happening in me I felt no love,


 I felt no reason,"


 


 [03:38--03:49] 


 [Bass]  

 
 G||---------|---------|---------|---------|
 D||---------|---------|---------|---------|
 A||---------|---------|---------|---------|
 D||-0---0-0-|-0---0-0-|-0---0-0-|-0---0-0-||

 


 pm| . . . . . . . . . . . . ||


 | ||


 |Guitars ||


 

 
 e||---------|---------|---------|---------||
 B||---------|---------|---------|---------|
 G||---------|---------|---------|---------|
 D||-0---0-0-|-0---0-0-|-0---0-0-|-0---0-0-|
 A||-0---0-0-|-0---0-0-|-0---0-0-|-0---0-0-|
 D||-0---0-0-|-0---0-0-|-0---0-0-|-0---0-0-||

 


 pm| . . . . . . . . . . . . ||


 |||-(2x)


 Bass ||


 

 
 G||---------|---------|---------|---------||
 D||---------|---------|---------|---------|
 A||---------|---------|---------|---------|
 D||-1---1-1-|-1---1-1-|-1---1-1-|-1---1-1-||

 


 pm| . . . . . . . . . . . . ||


 | ||


 |Guitars ||


 

 
 e||---------|---------|---------|---------||
 B||---------|---------|---------|---------|
 G||---------|---------|---------|---------|
 D||-1---1-1-|-1---1-1-|-1---1-1-|-1---1-1-|
 A||-1---1-1-|-1---1-1-|-1---1-1-|-1---1-1-|
 D||-1---1-1-|-1---1-1-|-1---1-1-|-1---1-1-|

 


 pm| . . . . . . . . . . . .


 


 "to carry on with my life


 Everything was wrong, nothing was right,"


 


 [03:50--03:55] 


 [Bass]  

 
 G||------------------|-------------------||
 D||------------------|-------------------||
 A||------------------|-------------------||
 D||-0----0----0----0-|-0----0----0----0--|||

 


 pm| . . . . . . . . ||


 | ||


 |Guitars ||


 

 
 e||------------------|-------------------|||
 B||------------------|-------------------||
 G||------------------|-------------------||
 D||-0----0----0----0-|-0----0----0----0--||
 A||-0----0----0----0-|-0----0----0----0--||
 D||-0----0----0----0-|-0----0----0----0--||

 


 pm| . . . . . . . .


 [03:56--04:01] 


 [Bass]  

 
 G||------------------|-------------------||
 D||------------------|-------------------||
 A||------------------|-------------------||
 D||-1----1----1----1-|-1----1----1----1--|||

 


 pm| . . . . . . . . |||


 | ||


 |Guitars ||


 

 
 e||------------------|-------------------|||
 B||------------------|-------------------||
 G||------------------|-------------------||
 D||-1----1----1----1-|-1----1----1----1--||
 A||-1----1----1----1-|-1----1----1----1--||
 D||-1----1----1----1-|-1----1----1----1--||

 


 pm| . . . . . . . .


 


 "But at least that is what I..."


 


 [04:02--04:07] 


 [Bass]  

 
 G||------------------|-------------------||
 D||------------------|-------------------||
 A||------------------|-------------------||
 D||-0~~--------------|-------------------||

 


 pm|


 |


 |Guitars


 

 
 e||------------------|-------------------||
 B||------------------|-------------------||
 G||------------------|-------------------||
 D||-0~~--------------|-------------------||
 A||-0~~--------------|-------------------||
 D||-0~~--------------|-------------------||

 


 pm|


 


 "...thought"


 


 (only Guitar 1 here)


 


 [04:08--04:14] 


 Guitar 1


 

 
 e||------------------|-------------------||
 B||------------------|-------------------||
 G||------------------|-------------------|||
 D||------------------|-------------------||||-(2x)
 A||-------------3----|-------------4-----|||
 D||-4-5-3-5-1-0---5--|-4-5-3-5-1-0---6---||

 


 pm| . . . . . . . . . . . .


 


 [04:15--04:40] 


 [Bass]  

 
 G||------------------|-------------------||
 D||------------------|-------------------||
 A||-------------3-2--|-------------4-3---||
 D||-4-5-3-5-1-0------|-4-5-3-5-1-0-------||

 


 pm| . . . . . . . . . . . . ||


 | |||-(8x)


 |Guitars ||


 

 
 e||------------------|-------------------||
 B||------------------|-------------------||
 G||-------------5----|-------------6-----||
 D||-------------x-5--|-------------x-6---||
 A||-4-5-3-5-1-0-3-5--|-4-5-3-5-1-0-4-6---||
 D||-4-5-3-5-1-0---5--|-4-5-3-5-1-0---6---||

 


 pm| . . . . . . . . . . . .


 


 "Kids finding laughter at my expense


 They were killing me on the inside they couldn't give up their pride


 My heart was bleeding from so much grieving


 On the outside I looked fine, you couldn't tell but on the inside..."


 


 [04:40--05:36] 


 [Bass]  

 
 G||---------------------------------------------------------------------||
 D||---------------------------------------------------------------------||
 A||---------------------------------------------------------------------||

 


 D||-0000000000000000777777776677666666666666666666666661313131313131313-||


 pm| those are 13's ||


 | ||


 |Guitars ||


 

 
 e||---------------------------------------------------------------------||
 B||---------------------------------------------------------------------||
 G||-----------------------------------------------------8-8-8-8-8-8-8-8-||
 D||-0000000000000000777777776677666666666666666666666666x-x-x-x-x-x-x-x-||
 A||-00000000000000007777777766776666666666666666666666666-6-6-6-6-6-6-6-||
 D||-0000000000000000777777776677666666666666666666666666----------------|||

 


 pm| play the 6x8 same speed as rest,only spaced to the 13's of the bass |||


 ||||-(4x)


 Bass |||


 

 
 G||---------------------------------------------------------------------|||
 D||---------------------------------------------------------------------||
 A||---------------------------------------------------------------------||
 D||-00000000000000007777777766776666666666666666--1-0-1-0-1-0-6---------||

 


 pm| . . . . . . ||


 | ||


 |Guitars ||


 

 
 e||---------------------------------------------------------------------||
 B||---------------------------------------------------------------------||
 G||---------------------------------------------------------------------||
 D||-00000000000000007777777766776666666666666666--1-0-1-0-1-0-6---------||
 A||-00000000000000007777777766776666666666666666--1-0-1-0-1-0-6---------||
 D||-00000000000000007777777766776666666666666666--1-0-1-0-1-0-6---------||

 


 pm| . . . . . .


 


 "...was eternal hell. I got caught up in the moment of depression,


 And before I knew it my body was lying on the ground


 With a gun in my hand my hourglass was out of sand."


 


 [05:37--05:40] 


 [Bass]  

 
 G||------------------|-------------------||
 D||------------------|-------------------||
 A||------------------|-------------------||
 D||-0~~--------------|-------------------||

 


 pm|


 |


 |Guitars


 

 
 e||------------------|-------------------||
 B||------------------|-------------------||
 G||------------------|-------------------||
 D||-0~~--------------|-------------------||
 A||-0~~--------------|-------------------||
 D||-0~~--------------|-------------------||

 


 pm|


 


 [05:41--05:49] 


 Guitar 1


 

 
 e||----------------------|---------------||
 B||-9-8------------------|---------------||||
 G||-----7-9-10-9-7-9-7-6-|---------------|||||-(4x)
 D||----------------------|---------------||||
 A||----------------------|---------------|||
 D||----------------------|---------------||

 


 pm|


 


 [05:49--05:50] 


 [Bass]  

 
 G||---|---|------------------------------||
 D||---|---|------------------------------||
 A||---|---|------------------------------||
 D||-1-|-0-|------------------------------||

 


 pm|


 |


 |Guitar 2


 

 
 e||---|---|------------------------------||
 B||---|---|------------------------------||
 G||---|---|------------------------------||
 D||-1-|-0-|------------------------------||
 A||-1-|-0-|------------------------------||
 D||-1-|-0-|------------------------------||

 


 pm|


 


 [05:51--06:34] 


 [Bass]  

 
 G||----------|----------|-------|--------||
 D||----------|----------|-------|--------||
 A||----------|----------|-------|--------||
 D||-0--5-4-0-|----------|-0-1-0-|--------||

 


 pm| . . . . . . ||


 | |||-(14x)


 |Guitars ||


 

 
 e||----------|----------|-------|--------||
 B||----------|----------|-------|--------||
 G||----------|-7--8-7-0-|-------|--------||
 D||-0--5-4-0-|----------|-0-1-0-|--------||
 A||-0--5-4-0-|----------|-0-1-0-|--------||
 D||-0--5-4-0-|----------|-0-1-0-|--------||

 


 pm| . . . . . .


 


 "Thanks to all the people who drove me to death,


 Without you I could of never ended my breath,


 Through your anger and hate, I was able to choose my fate,


 There was a way out, but I chose the easy route."


 


 [06:35--06:36] 


 [Bass]  

 
 G||---|----------------------------------||
 D||---|----------------------------------||
 A||---|----------------------------------||
 D||-0-|----------------------------------||

 


 pm|


 |


 |Guitars


 

 
 e||---|----------------------------------||
 B||---|----------------------------------||
 G||---|----------------------------------||
 D||-0-|----------------------------------||
 A||-0-|----------------------------------||
 D||-0-|----------------------------------||

 


 pm|


 


 (Just bass here, while guitar starts to fade)


 


 [06:36--06:40] 


 [Bass]  

 
 G||---------------------------------|----||
 D||---------------------------------|(2x)||
 A||---------------------------------|----||
 D||-6-0-0-0-5-0-0-0-3-0-0-0-3-5-6-0-|----||

 


 pm| . . . . . . . . . .


 


 [06:41--06:50] 


 [Bass]  

 
 G||--------------------------------------||
 D||--------------------------------------||
 A||--------------------------------------||
 D||-6-000000-5-000000-3-000000-3-5-6-0---||

 


 pm| ||


 | |||-(4x)


 |Guitars ||


 

 
 e||--------------------------------------||
 B||--------------------------------------||
 G||--------------------------------------||
 D||-6-000000-5-000000-3-000000-3-5-6-0---||
 A||-6-000000-5-000000-3-000000-3-5-6-0---||
 D||-6-000000-5-000000-3-000000-3-5-6-0---||

 


 pm| ...... ...... ......


 


 [::Kids Laugbing/People talking::] 


 


 (Just Guitar)


 


 [06:51--07:03] 


 Guitar 1 [CLEAN]


 

 
 e||--------------------------------|-----||
 B||-----7-----8-----10-----8-----7-|-----||
 G||--------------------------------|-----||
 D||--------------------------------|-----||
 A||-9-9---9-9---9-9----9-9---9-9---|-----||
 D||--------------------------------|-----||

 


 pm| ||


 |||-(2x)


 ||


 

 
 e||-------------------------------|------||
 B||-----6-----6-----6-----6-----6-|------||
 G||-------------------------------|------||
 D||-------------------------------|------||
 A||-8-8---8-8---8-8---8-8---8-8---|------||
 D||-------------------------------|------||

 


 pm|


 


 (this part is kinda hard to hear)


 {DISTORTION on GUITARS now]


 


 [07:04--07:29] 


 [Bass]  

 
 G||----------------------------------------------||
 D||----------------------------------------------||
 A||-----------------12------12------10------9----||
 D||-9---9---9---9--------------------------------||

 


 pm| ||


 | ||


 Guitar 1 [Tremelo picked] ||


 

 
 e||----------------------------------------------||
 B||----------------------------------------------||
 G||----------------------------------------------||
 D||----------------------------------------------||
 A||-----------------1212121212121212101010109999-||
 D||-9999999999999999-----------------------------||

 


 pm| ||


 | ||


 |Guitar 2 [Tremelo picked] ||


 

 
 e||----------------------------------------------||
 B||----------------------------------------------||
 G||----------------------------------------------||
 D||----------------------------------------------||
 A||----------------------------------------------||
 D||-9999999999999999-9-9-9-9-9-9-9-9-9-9-9-99999-||

 


 pm| ||


 ||


 Bass |||


 

 
 G||----------------------------------|-----------|| ||
 D||----------------------------------|-----------|| ||||-(2x)
 A||----------------------------------|-----------|| ||
 D||-8---8---8---8---8---8---8---8----|-----------|| |

 


 pm| ||


 | ||


 |Guitar 1 [Tremelo picked] ||


 

 
 e||----------------------------------|-----------||
 B||----------------------------------|-----------||
 G||----------------------------------|-----------||
 D||----------------------------------|-----------||
 A||-88888888888888888899998888111111-|-----------||
 D||-88888888888888888888888888-8-8-8-|-----------||

 


 pm| ||


 | ||


 |Guitar 2 [Tremelo picked] ||


 

 
 e||----------------------------------|-----------||
 B||----------------------------------|-----------||
 G||----------------------------------|-----------||
 D||----------------------------------|-----------||
 A||----------------------------------|-----------||
 D||-88888888888888888888888888-8-8-8-|-----------||

 


 pm|


 


 (Only bass, and one guitar here [and drums of course])


 


 [07:30--07:39] 


 [Bass]  

 
 G||--------------------------|-----------||
 D||---------------7-----6----|-----------||
 A||-----5-----5-----8-----7~-|-----------||
 D||-0-0---0-0---0-----0------|-----------||

 


 pm| . . . . . . ||


 | |||-(3x)


 |Guitar 1 ||


 

 
 e||-----------------------------|--------||
 B||-----------------------------|--------||
 G||-----------------------------|--------||
 D||---------------7------6------|--------||
 A||-----5-----5-----8--------7~-|--------||
 D||-0-0---000---0-----66---6----|--------||

 


 pm| . . ... . .. .


 


 [07:39--08:08] 


 [Bass]  

 
 G||----------------------------|---------||
 D||---------------7-----6------|---------||
 A||-----5-----5-----8-------7~-|---------||
 D||-0-0---0-0---0-----0---0----|---------||

 


 pm| . . . . . . ||


 | |||-(11x)


 |Both Guitars ||


 

 
 e||----------------------------|---------||
 B||----------------------------|---------||
 G||----------------------------|---------||
 D||---------------7-----6------|---------||
 A||-----5-----5-----8-------77-|---------||
 D||-0-0---000---0-----0---0----|---------||

 


 pm| . . ... . . .


 


 "Blast of a gun, breath runs out, final thoughts put to extinction


 '"No more love, no more pain,"' for you have chosen suicide as the way out...


 Help them"


 


 [08:09--08:21] 


 [Bass]  

 
 G||----------|----------|----------------||
 D||----------|----------|----------------||
 A||----------|----------|----------------||
 D||-2--------|-1--------|-1-1--1-1-1--1--||

 


 pm| . . . . . . ||


 | |||-(2x)


 |Guitars ||


 

 
 e||----------|----------|----------------||
 B||----------|----------|----------------||
 G||----------|----------|----------------||
 D||-2--------|-1--------|-1-1--1-1-1--1--||
 A||-2--------|-1--------|-1-1--1-1-1--1--||
 D||-2--------|-1--------|-1-1--1-1-1--1--||

 


 pm| . . . . . .


 


 "Ice cold fingers, body lays on the floor,


 Pool of blood you see, you scream out in..."


 


 [08:22--08:33] 


 [Bass]  

 
 G||--------------------------------------||
 D||--------------------------------------||
 A||--------------------------------------||
 D||-2-3-2-1--2-3-2-1--2-3-2-1--2-3-2-1---||

 


 pm| ||


 | ||


 |Guitars ||


 

 
 e||--------------------------------------||
 B||--------------------------------------||
 G||--------------------------------------||
 D||-2-3-2-1--2-3-2-1--2-3-2-1--2-3-2-1---||
 A||-2-3-2-1--2-3-2-1--2-3-2-1--2-3-2-1---||
 D||-2-3-2-1--2-3-2-1--2-3-2-1--2-3-2-1---|||

 


 pm| . . . . . . . . . . . . . . |||


 ||||-(2x)


 Bass |||


 

 
 G||--------------------------------------|||
 D||--------------------------------------||
 A||--------------------------------------||
 D||-1-2-1-0--1-2-1-0--1-2-1-0--1-2-1-0---||

 


 pm| ||


 | ||


 |Guitars ||


 

 
 e||--------------------------------------||
 B||--------------------------------------||
 G||--------------------------------------||
 D||-1-2-1-0--1-2-1-0--1-2-1-0--1-2-1-0---||
 A||-1-2-1-0--1-2-1-0--1-2-1-0--1-2-1-0---||
 D||-1-2-1-0--1-2-1-0--1-2-1-0--1-2-1-0---||

 


 pm| . . . . . . . . . . . . . .


 


 "...terror."


 


 [08:34--08:37] 


 [Bass]  

 
 G||-----------------|--------|-----------------||
 D||-----------------|--------|-----------------||
 A||-----------------|--------|-----------------||
 D||-2-3-2-1-2-3-2-1-|--------|-1-2-1-0-1-2-1-0-||

 


 pm| . . . . . . . . . . . . . . . . ||


 | ||


 |Guitars ||


 

 
 e||-----------------|--------|-----------------||
 B||-----------------|--------|-----------------||
 G||-----------------|--------|-----------------||
 D||-2-3-2-1-2-3-2-1-|--------|-1-2-1-0-1-2-1-0-||
 A||-2-3-2-1-2-3-2-1-|--------|-1-2-1-0-1-2-1-0-||
 D||-2-3-2-1-2-3-2-1-|--------|-1-2-1-0-1-2-1-0-||

 


 pm| . . . . . . . . . . . . . . . .


 


 [only drums for 08:38--08:39] 


 


 [08:39.45~--08:44] 


 [Bass]  

 
 G||-----------------|--------|---------------------------------||
 D||-----------------|--------|---------------------------------||
 A||-----------------|--------|---------------------------------||
 D||-2-3-2-1-2-3-2-1-|--------|-1-2-1-0-1-2-1-0-1-2-1-0-1-2-1-0-||

 


 pm| . . . . . . . . . . . . . . . . . . . . . . . . ||


 | ||


 |Guitars ||


 

 
 e||-----------------|--------|---------------------------------||
 B||-----------------|--------|---------------------------------||
 G||-----------------|--------|---------------------------------||
 D||-2-3-2-1-2-3-2-1-|--------|-1-2-1-0-1-2-1-0-1-2-1-0-1-2-1-0-||
 A||-2-3-2-1-2-3-2-1-|--------|-1-2-1-0-1-2-1-0-1-2-1-0-1-2-1-0-||
 D||-2-3-2-1-2-3-2-1-|--------|-1-2-1-0-1-2-1-0-1-2-1-0-1-2-1-0-||

 


 pm| . . . . . . . . . . . . . . . . . . . . . . . .


 


 [08:45--09:08] 


 [Bass]  

 
 G||--------------------------------------||
 D||--------------------------------------||
 A||--------------------------------------||
 D||-2-3-2-1-2-3-2-1-2-3-2-1-2-3-2-1------||

 


 pm| . . . . . . . . . . . . . . . . ||


 | ||


 |Guitars ||


 

 
 e||--------------------------------------||
 B||--------------------------------------||
 G||--------------------------------------||
 D||-2-3-2-1-2-3-2-1-2-3-2-1-2-3-2-1------||
 A||-2-3-2-1-2-3-2-1-2-3-2-1-2-3-2-1------||
 D||-2-3-2-1-2-3-2-1-2-3-2-1-2-3-2-1------|||

 


 pm| . . . . . . . . . . . . . . . . |||


 ||||-(4x)


 Bass |||


 

 
 G||--------------------------------------|||
 D||--------------------------------------||
 A||--------------------------------------||
 D||-1-2-1-0-1-2-1-0-1-2-1-0-1-2-1-0------||

 


 pm| . . . . . . . . . . . . . . . . ||


 | ||


 |Guitars ||


 

 
 e||--------------------------------------||
 B||--------------------------------------||
 G||--------------------------------------||
 D||-1-2-1-0-1-2-1-0-1-2-1-0-1-2-1-0------||
 A||-1-2-1-0-1-2-1-0-1-2-1-0-1-2-1-0------||
 D||-1-2-1-0-1-2-1-0-1-2-1-0-1-2-1-0------||

 


 pm| . . . . . . . . . . . . . . . .


 


 "Her body is now a part of mutilation, her soul the victim of strangulation


 I will not accept this evil anymore."


 


 [09:08--09:33] 


 [Bass]  

 
 G||------------------------|-------------||
 D||------------------------|-------------||
 A||------------------------|-------------||
 D||-0-1-4-0--------0-1-4-0-|-------------||

 


 pm| . . . . . . . . ||


 | |||-(9x)


 |Guitars ||


 

 
 e||------------------------|-------------||
 B||------------------------|-------------||
 G||------------------------|-------------||
 D||-0-1-4-0--------0-1-4-0-|---4-1-3-0---||
 A||-0-1-4-0--------0-1-4-0-|-------------||
 D||-0-1-4-0--------0-1-4-0-|-------------||

 


 pm| . . . . . . . . . . . .


 


 "I never thought of who I hurt


 or I never tried to look for the good


 I'm sorry for whoever I hurt,


 it's not easy to look back on my life,


 And know I did not know Christ."


 


 [09:34--09:56] 


 [Bass]  

 
 G||-----------------||
 D||-----------------||
 A||-----------------||
 D||-0-1-4-1-0-1-4-1-||

 


 pm| . . . . . . . . ||


 | |||-(5x)


 |Guitars ||


 

 
 e||-----------------||
 B||-----------------||
 G||-----------------||
 D||-0-1-4-1-0-1-4-1-||
 A||-0-1-4-1-0-1-4-1-||
 D||-0-1-4-1-0-1-4-1-||

 


 pm| . . . . . . . .


 


 "For now I live in a real hell


 I wish I had another chance... then I would live my life..."


 


 [09:57--09:59] 


 [Bass]  

 
 G||-------------||
 D||-------------||
 A||-------------||
 D||-0--1--4--1--||

 


 pm| . . . . ||


 | ||


 |Guitars ||


 

 
 e||-------------||
 B||-------------||
 G||-------------||
 D||-0--1--4--1--||
 A||-0--1--4--1--||
 D||-0--1--4--1--||

 


 pm| . . . .


 


 "...With Love."


 


 [09:59--10:01] 


 [Bass]  

 
 G||----------------||
 D||----------------||
 A||----------------||
 D||-0---1---4---1--||

 


 pm| . . . . ||


 | ||


 |Guitars ||


 

 
 e||----------------||
 B||----------------||
 G||----------------||
 D||-0---1---4---1--||
 A||-0---1---4---1--||
 D||-0---1---4---1--||

 


 pm| . . . .


 


 "Love. Love"


 


 [10:02--10:04] 


 [Bass]  

 
 G||----------------------||
 D||----------------------||
 A||----------------------||
 D||-0-----1-----4-----1--||

 


 pm| . . . . ||


 | ||


 |Guitars ||


 

 
 e||----------------------||
 B||----------------------||
 G||----------------------||
 D||-0-----1-----4-----1--||
 A||-0-----1-----4-----1--||
 D||-0-----1-----4-----1--||

 


 pm| . . . .


 


 "Love. Love"


 


 [10:04--10:06] 


 [Bass]  

 
 G||----------------------------||
 D||----------------------------||
 A||----------------------------||
 D||-0-------1-------4-------1--||

 


 pm| . . . . ||


 | ||


 |Guitars ||


 

 
 e||----------------------------||
 B||----------------------------||
 G||----------------------------||
 D||-0-------1-------4-------1--||
 A||-0-------1-------4-------1--||
 D||-0-------1-------4-------1--||

 


 pm| . . . .


 


 "Love. Love"


 


 [10:07--10:23] 


 [Bass]  

 
 G||------------------||
 D||------------------||
 A||------------------||

 


 D||-0~~~~~~~~~~~~~---||


 pm|


 |


 |Guitars


 

 
 e||------------------||
 B||------------------||
 G||------------------||


Important: The song above is NOT stored on the Chordie server. The original song is hosted at www.azchords.com. Chordie works as a search engine and provides on-the-fly formatting. Chordie does not index songs against artists'/composers' will. To remove this song please click here.

This song is displayed as text-only. Transposing and tuning is only available for chordpro-songs.
Rate #1 of 1 versions

Login - add to songbook

SHARE PAGE  



You need to log in to post comments