Guitar Tabs, Chords and Lyrics
Server problems seems to be fixed. Chordie has been experiencing problems with songs disappearing. These issues now seems to be fixed, but still verifying the fix. If you find anything strange, please email admin@chordie.com.


Demons Sing Love Songs   Unwound

 
 d|------------------------------------------------------------------------------------------------|
 A|------------------------------------------------------------------------------------------------|
 G|-------------2-----------------------2-----------------------3-----------------------3----------|
 D|-------0-----------0-----------0-----------0-----------0-----------0-----------0-----------0----|
 A|-2-----------------------2-----------------------1-----------------------1----------------------|
 E|------------------------------------------------------------------------------------------------|

 


 [+]  

 
 d|------------------------------------------------------------------------------------------------|
 A|------------------------------------------------------------------------------------------------|
 G|-------------5-----------------------5-----------------------4-----------------------4----------|
 D|-------0-----------0-----------0-----------0-----------0-----------0-----------0-----------0----|
 A|------------------------------------------------------------------------------------------------|
 E|-5-----------------------5-----------------------3-----------------------3----------------------|

 


 [+]  

 
 d|------------------------------------------------------------------------------------------------|
 A|------------------------------------------------------------------------------------------------|
 G|-------------3-----------------------3-----------------------3-----------------------3----------|
 D|-------0-----------0-----------0-----------0-----------0-----------0-----------0-----------0----|
 A|------------------------------------------------------------------------------------------------|
 E|-1-----------------------1-----------------------1-----------------------1----------------------|

 


 


 


 INTRO I:


 Guitar II


 

 
 e|------------------------------------------------------------------------------------------------|
 B|------------------------------------------------------------------------------------------------|
 G|-4-----------------------------------------------3----------------------------------------------|
 D|------------------------------------------------------------------------------------------------|
 A|------------------------------------------------------------------------------------------------|
 E|------------------------------------------------------------------------------------------------|

 


 [+]  

 
 e|------------------------------------------------------------------------------------------------|
 B|------------------------------------------------------------------------------------------------|
 G|-5-----------------------------------------------4----------------------------------------------|
 D|------------------------------------------------------------------------------------------------|
 A|------------------------------------------------------------------------------------------------|
 E|------------------------------------------------------------------------------------------------|

 


 [+]  

 
 e|------------------------------------------------------------------------------------------------|
 B|------------------------------------------------------------------------------------------------|
 G|-3----------------------------------------------------------------------------------------------|
 D|------------------------------------------------------------------------------------------------|
 A|------------------------------------------------------------------------------------------------|
 E|------------------------------------------------------------------------------------------------|

 


 


 


 INTRO II/VERSE/CHORUS I:


 Guitar II


 

 
 e|-0-----------------------------------------------1----------------------------------------------|
 B|-3-----------------------------------------------3----------------------------------------------|
 G|-4-----------------------------------------------3----------------------------------------------|
 D|------------------------------------------------------------------------------------------------|
 A|------------------------------------------------------------------------------------------------|
 E|------------------------------------------------------------------------------------------------|

 


 [+]  

 
 e|-0-----------------------------------------------0----------------------------------------------|
 B|-3-----------------------------------------------3----------------------------------------------|
 G|-5-----------------------------------------------4----------------------------------------------|
 D|------------------------------------------------------------------------------------------------|
 A|------------------------------------------------------------------------------------------------|
 E|------------------------------------------------------------------------------------------------|

 


 [+]  

 
 e|-1----------------------------------------------------------------------------------------------|
 B|-1----------------------------------------------------------------------------------------------|
 G|-3----------------------------------------------------------------------------------------------|
 D|------------------------------------------------------------------------------------------------|
 A|------------------------------------------------------------------------------------------------|
 E|------------------------------------------------------------------------------------------------|

 


 


 


 CHORUS II:


 Guitar I


 

 
 d|------------------------------------------------------------------------------------------------|
 A|------------------------------------------------------------------------------------------------|
 G|-------------2-----------------------2-----------------------3-----------------------3----------|
 D|-------0-----------0-----------0-----------0-----------0-----------0-----------0-----------0----|
 A|-2-----------------------2-----------------------1-----------------------1----------------------|
 E|------------------------------------------------------------------------------------------------|

 


 [+]  

 
 d|------------------------------------------------------------------------------------------------|
 A|------------------------------------------------------------------------------------------------|
 G|-------------2-----------------------2-----------------------0-----------------------0----------|
 D|-------0-----------0-----------0-----------0-----------0-----------0-----------0-----------0----|
 A|------------------------------------------------------------------------------------------------|
 E|-2-----------------------2-----------------------3-----------------------3----------------------|

 


 [+]  

 
 d|------------------------------------------------------------------------------------------------|
 A|------------------------------------------------------------------------------------------------|
 G|-------------5-----------------------5-----------5-----5-----5-----5-----5-----5-----5-----x----|
 D|-------0-----------0-----------0-----------0-----x-----x-----x-----x-----x-----x-----x-----x----|
 A|-------------------------------------------------7-----7-----7-----8-----8-----8-----7-----x----|
 E|-6-----------------------6-----------------------6-----6-----6-----6-----6-----6-----6-----x----|

 


 


 


 CHORUS II:


 Guitar II


 

 
 e|-0-----------------------------------------------1----------------------------------------------|
 B|-3-----------------------------------------------3----------------------------------------------|
 G|-4-----------------------------------------------3----------------------------------------------|
 D|------------------------------------------------------------------------------------------------|
 A|------------------------------------------------------------------------------------------------|
 E|------------------------------------------------------------------------------------------------|

 


 [+]  

 
 e|-0-----------------------------------------------0----------------------------------------------|
 B|-0-----------------------------------------------0----------------------------------------------|
 G|-2-----------------------------------------------0----------------------------------------------|
 D|-0-----------------------------------------------0----------------------------------------------|
 A|------------------------------------------------------------------------------------------------|
 E|------------------------------------------------------------------------------------------------|

 


 [+]  

 
 e|-1-----------------------------------------------0----------------------------------------------|
 B|-1-----------------------------------------------1----------------------------------------------|
 G|-3-----------------------------------------------3----------------------------------------------|
 D|-0-----------------------------------------------2----------------------------------------------|
 A|------------------------------------------------------------------------------------------------|
 E|------------------------------------------------------------------------------------------------|

 


 


 


 OUTRO:


 Guitar I


 

 
 d|------------------------------------------------------------------------------------------------||
 A|------------------------------------------------------------------------------------------------||
 G|-------------3-----------------------3-----------------------2-h3--2-----------------0-h2-p0----|| x 4
 D|-------2-----------2-----------2-----------2-----------0-----------------------0----------------||
 A|------------------------------------------------------------------------------------------------||
 E|-1-----------------------1-----------------------3-----------------------3----------------------||

 


 [+]  

 
 d|------------------------------------------------------------------------------------------------||
 A|-------------0-----------------------0----------------------------------------------------------||
 G|-------3-----------3-----------3-----------3-----------------2-----------------------0----------|| x 4
 D|-------------------------------------------------------0-----------0-----------0-----------0----||
 A|------------------------------------------------------------------------------------------------||
 E|-1-----------------------1-----------------------3-----------------------3----------------------||

 


 [+]  

 
 d|------------------------------------------------------------------------------------------------|
 A|------------------------------------------------------------------------------------------------|
 G|-------------2-----------------------0-----------------------2-----------------------0----------|
 D|-------0-----------0-----------0-----------0-----------0-----------0-----------0-----------0----|
 A|------------------------------------------------------------------------------------------------|
 E|-3-----------------------3-----------------------3-----------------------3----------------------|

 


 [+]  

 
 d|-0----------------------------------------------------------------------------------------------|
 A|-0----------------------------------------------------------------------------------------------|
 G|-0----------------------------------------------------------------------------------------------|
 D|-0----------------------------------------------------------------------------------------------|
 A|------------------------------------------------------------------------------------------------|
 E|------------------------------------------------------------------------------------------------|

 


 


 


 OUTRO:


 Guitar II


 

 
 d|------------------------------------------------------------------------------------------------||
 A|------------------------------------------------------------------------------------------------||
 G|------------------------------------------------------------------------------------------------|| x 2
 D|------------------------------------------------------------------------------------------------||
 A|------------------------------------------------------------------------------------------------||
 E|------------------------------------------------------------------------------------------------||

 


 [+]  

 
 d|-------------------1----------------------------------------------------------------------------||
 A|-------------------------------------------------------------------3----------------------------||
 G|-------------3-----------------------------------------------2----------------------------------|| x 2
 D|------------------------------------------------------------------------------------------------||
 A|------------------------------------------------------------------------------------------------||
 E|-1-----------------------------------------------3----------------------------------------------||

 


 [+]  

 
 d|-------------------1-----------------0----------------------------------------------------------||
 A|-------------------------------------------------------------------3-----------------1----------||
 G|-------------3-----------------------------------------------2----------------------------------|| x 4
 D|------------------------------------------------------------------------------------------------||
 A|------------------------------------------------------------------------------------------------||
 E|-1-----------------------------------------------3----------------------------------------------||

 


 [+]  

 
 d|-------------------1-----------------------------------------------1----------------------------|
 A|------------------------------------------------------------------------------------------------|
 G|-------------2-----------------------------------------------2----------------------------------|
 D|------------------------------------------------------------------------------------------------|
 A|------------------------------------------------------------------------------------------------|
 E|-3-----------------------------------------------3----------------------------------------------|

 


 [+]  

 
 d|------------------------------------------------------------------------------------------------|
 A|------------------------------------------------------------------------------------------------|
 G|------------------------------------------------------------------------------------------------|
 D|------------------------------------------------------------------------------------------------|
 A|------------------------------------------------------------------------------------------------|
 E|-3----------------------------------------------------------------------------------------------| 


Important: The song above is NOT stored on the Chordie server. The original song is hosted at www.azchords.com. Chordie works as a search engine and provides on-the-fly formatting. Chordie does not index songs against artists'/composers' will. To remove this song please click here.

This song is displayed as text-only. Transposing and tuning is only available for chordpro-songs.
Rate #1 of 1 versions

Login - add to songbook

SHARE PAGE  



You need to log in to post comments