Guitar Tabs, Chords and Lyrics
Server problems seems to be fixed. Chordie has been experiencing problems with songs disappearing. These issues now seems to be fixed, but still verifying the fix. If you find anything strange, please email admin@chordie.com.


Terminus   Unwound

 
 e|------------------------------------------------------------------------------------------------||
 A|------------------------------------------------------------------------------------------------||
 G|------------------------------------------------------------------------------------------------|| x 6
 D|------------------------------------------------------------------------------------------------||
 A|------------------------------------------------------------------------------------------------||
 E|<6>---<6>---------------<6>---<6>---------------<6>---<6>---------------<6>---<6>---------------||

 


 


 


 VERSE I:


 Guitar I


 ST ST ST ST


 

 
 e|------------------------------------------------------------------------------------------------||
 A|------------------------------------------------------------------------------------------------||
 G|------------------------------------------------------------------------------------------------|| x 4
 D|------------------------------------------------------------------------------------------------||
 A|------------------------------------------------------------------------------------------------||
 E|-6-----6-----------------6-----6-----------------6-----6-----------------6-----6----------------||

 


 [+]  

 
 e|------------------------------------------------------------------------------------------------|
 A|------------------------------------------------------------------------------------------------|
 G|------------------------------------------------------------------------------------------------|
 D|-0----------------------------------------------------------------------------------------------|
 A|-------------------1-p0--------------0-----------------------3----------------------------------|
 E|-------------------------3-----------------------2-----------------------0----------------------|

 


 [+] ST ST ST ST


 

 
 e|------------------------------------------------------------------------------------------------||
 A|------------------------------------------------------------------------------------------------||
 G|------------------------------------------------------------------------------------------------|| x 2
 D|------------------------------------------------------------------------------------------------||
 A|------------------------------------------------------------------------------------------------||
 E|-6-----6-----------------6-----6-----------------6-----6-----------------6-----6----------------||

 


 [+]  

 
 e|------------------------------------------------------------------------------------------------||
 A|------------------------------------------------------------------------------------------------||
 G|------------------------------------------------------------------------------------------------|| x 2
 D|-0----------------------------------------------------------------------------------------------||
 A|-------------------1-p0--------------0-----------------------3----------------------------------||
 E|-------------------------3-----------------------2-----------------------0----------------------||

 


 [+] ST ST ST ST


 

 
 e|------------------------------------------------------------------------------------------------||
 A|-7-----7-----------------7-----7-----------------7-----7-----------------7-----7----------------||
 G|-6-----6-----------------6-----6-----------------6-----6-----------------6-----6----------------|| x 2
 D|-4-----4-----------------4-----4-----------------4-----4-----------------4-----4----------------||
 A|-4-----4-----------------4-----4-----------------4-----4-----------------4-----4----------------||
 E|------------------------------------------------------------------------------------------------||

 


 [+]  

 
 e|------------------------------------------------------------------------------------------------||
 A|------------------------------------------------------------------------------------------------||
 G|------------------------------------------------------------------------------------------------|| x 4
 D|-0----------------------------------------------------------------------------------------------||
 A|-------------------1-p0--------------0-----------------------3----------------------------------||
 E|-------------------------3-----------------------2-----------------------0----------------------||

 


 


 


 CHORUS:


 Guitar I


 

 
 e|------------------------------------------------------------------------------------------------|
 A|------------------------------------------------------------------------------------------------|
 G|-9-----------------------6-----5-----------------9-----------------------6-----5----------------|
 D|-8-----------------------------------------------8----------------------------------------------|
 A|-7-----------------6-----------------------------7-----------------6----------------------------|
 E|-6-----------------------------------------------6----------------------------------------------|

 


 [+]  

 
 e|------------------------------------------------------------------------------------------------|
 A|------------------------------------------------------------------------------------------------|
 G|-9-----------------------7-----8-----------------9-----------------------7-----8----------------|
 D|-8-----------------9-----------------------------8-----------------9----------------------------|
 A|-7-----------------------------------------------7----------------------------------------------|
 E|-6-----------------------------------------------6----------------------------------------------|

 


 


 


 VERSE II:


 Guitar I


 PM ST PM ST PM ST PM ST


 

 
 e|------------------------------------------------------------------------------------------------||
 A|------------------------------------------------------------------------------------------------||
 G|-------9-----------------------9-----------------------9-----------------------9----------------|| x 4
 D|-------8-----------------------8-----------------------8-----------------------8----------------||
 A|-------7-----------------------7-----------------------7-----------------------7----------------||
 E|-6-----6-----------------6-----6-----------------6-----6-----------------6-----6----------------||

 


 [+]  

 
 e|------------------------------------------------------------------------------------------------|
 A|------------------------------------------------------------------------------------------------|
 G|------------------------------------------------------------------------------------------------|
 D|-0----------------------------------------------------------------------------------------------|
 A|-------------------1-p0--------------0-----------------------3----------------------------------|
 E|-------------------------3-----------------------2-----------------------0----------------------|

 


 [+] PM ST PM ST PM ST PM ST


 

 
 e|------------------------------------------------------------------------------------------------||
 A|------------------------------------------------------------------------------------------------||
 G|-------9-----------------------9-----------------------9-----------------------9----------------|| x 2
 D|-------8-----------------------8-----------------------8-----------------------8----------------||
 A|-------7-----------------------7-----------------------7-----------------------7----------------||
 E|-6-----6-----------------6-----6-----------------6-----6-----------------6-----6----------------||

 


 [+]  

 
 e|------------------------------------------------------------------------------------------------||
 A|------------------------------------------------------------------------------------------------||
 G|------------------------------------------------------------------------------------------------|| x 2
 D|-0----------------------------------------------------------------------------------------------||
 A|-------------------1-p0--------------0-----------------------3----------------------------------||
 E|-------------------------3-----------------------2-----------------------0----------------------||

 


 [+] ST ST ST ST


 

 
 e|------------------------------------------------------------------------------------------------||
 A|-7-----7-----------------7-----7-----------------7-----7-----------------7-----7----------------||
 G|-6-----6-----------------6-----6-----------------6-----6-----------------6-----6----------------|| x 2
 D|-4-----4-----------------4-----4-----------------4-----4-----------------4-----4----------------||
 A|-4-----4-----------------4-----4-----------------4-----4-----------------4-----4----------------||
 E|------------------------------------------------------------------------------------------------||

 


 [+]  

 
 e|------------------------------------------------------------------------------------------------||
 A|------------------------------------------------------------------------------------------------||
 G|------------------------------------------------------------------------------------------------|| x 4
 D|-0----------------------------------------------------------------------------------------------||
 A|-------------------1-p0--------------0-----------------------3----------------------------------||
 E|-------------------------3-----------------------2-----------------------0----------------------||

 


 


 


 INTERLUDE:


 Guitar I


 

 
 e|------------------------------------------------------------------------------------------------||
 A|------------------------------------------------------------------------------------------------||
 G|-9--9--9--9--9--9--9--9--9--9--9--9--9--9--9--9--9--9--9--9--9--9--9--9--9--9--9--9--9--9--9--9-|| x 2
 D|------------------------------------------------------------------------------------------------||
 A|------------------------------------------------------------------------------------------------||
 E|------------------------------------------------------------------------------------------------||

 


 [+]  

 
 e|------------------------------------------------------------------------------------------------|
 A|------------------------------------------------------------------------------------------------|
 G|-9\---------------------------------------------------------------------------------------------|
 D|------------------------------------------------------------------------------------------------|
 A|------------------------------------------------------------------------------------------------|
 E|------------------------------------------------------------------------------------------------|

 


 


 


 BRIDGE I:


 Guitar I


 

 
 PM----------------------------------------------------------------------------------------->
 e|-8-----------8-----------8-----------8-----------8-----------8-----------8-----------8----------|
 A|------------------------------------------------------------------------------------------------|
 G|-------9-----------9-----------9-----------9-----------9-----------9-----------9-----------9----|
 D|------------------------------------------------------------------------------------------------|
 A|------------------------------------------------------------------------------------------------|
 E|------------------------------------------------------------------------------------------------|

 


 [+]  

 
 PM----------------------------------------------------------------------------------------->
 e|-7-----------7-----------7-----------7-----------7-----------7-----------7-----------7----------|
 A|------------------------------------------------------------------------------------------------|
 G|-------9-----------9-----------9-----------9-----------9-----------9-----------9-----------9----|
 D|------------------------------------------------------------------------------------------------|
 A|------------------------------------------------------------------------------------------------|
 E|------------------------------------------------------------------------------------------------|

 


 [+]  

 
 PM-----------------------------------------------------------...
 e|-6-----------6-----------6-----------6-----------6-----------6-----------6-----------6----------|
 A|-8-----------8-----------8-----------8-----------8-----------8-----------8-----------8----------|
 G|-------9-----------9-----------9-----------9-----------9-----------9-----------9-----------9----|
 D|------------------------------------------------------------------------------------------------|
 A|------------------------------------------------------------------------------------------------|
 E|------------------------------------------------------------------------------------------------|

 


 [+]  

 
 e|-5--5--5--5--5--5--5--5--5--5--5--5--5--5--5--5--5--5--5--5--5--5--5--5--5--5--5--5--5--5--5--5-|
 A|-7--7--7--7--7--7--7--7--7--7--7--7--7--7--7--7--7--7--7--7--7--7--7--7--7--7--7--7--7--7--7--7-|
 G|-5--5--5--5--5--5--5--5--5--5--5--5--5--5--5--5--5--5--5--5--5--5--5--5--5--5--5--5--5--5--5--5-|
 D|------------------------------------------------------------------------------------------------|
 A|------------------------------------------------------------------------------------------------|
 E|------------------------------------------------------------------------------------------------|

 


 


 


 BRIDGE I:


 Guitar II


 

 
 PM----------------------------------------------------------------------------------------->
 e|------------------------------------------------------------------------------------------------||
 A|------------------------------------------------------------------------------------------------||
 G|-------9-----------9-----------9-----------9-----------9-----------9-----------9-----------9----|| x 2
 D|-7-----------7-----------7-----------7-----------7-----------7-----------7-----------7----------||
 A|------------------------------------------------------------------------------------------------||
 E|------------------------------------------------------------------------------------------------||

 


 [+]  

 
 PM-----------------------------------------------------------...
 e|------------------------------------------------------------------------------------------------|
 A|-8-----------8-----------8-----------8-----------8-----------8-----------8-----------8----------|
 G|-------9-----------9-----------9-----------9-----------9-----------9-----------9-----------9----|
 D|------------------------------------------------------------------------------------------------|
 A|------------------------------------------------------------------------------------------------|
 E|------------------------------------------------------------------------------------------------|

 


 [+]  

 
 e|-5--5--5--5--5--5--5--5--5--5--5--5--5--5--5--5--5--5--5--5--5--5--5--5--5--5--5--5--5--5--5--5-|
 A|-7--7--7--7--7--7--7--7--7--7--7--7--7--7--7--7--7--7--7--7--7--7--7--7--7--7--7--7--7--7--7--7-|
 G|-5--5--5--5--5--5--5--5--5--5--5--5--5--5--5--5--5--5--5--5--5--5--5--5--5--5--5--5--5--5--5--5-|
 D|------------------------------------------------------------------------------------------------|
 A|------------------------------------------------------------------------------------------------|
 E|------------------------------------------------------------------------------------------------|

 


 


 


 BRIDGE II:


 Guitars I + II


 

 
 e|------------------------------------------------------------------------------------------------|
 A|-8----p7-----0-----8----p7-----0-----8----p7-----0-----8----p7-----0-----8----p7-----0-----8----|
 G|------------------------------------------------------------------------------------------------|
 D|------------------------------------------------------------------------------------------------|
 A|------------------------------------------------------------------------------------------------|
 E|------------------------------------------------------------------------------------------------|

 


 [+]  

 
 e|------------------------------------------------------------------------------------------------|
 A|-10---p8-----0-----10---p8-----0-----10---p8-----0-----10---p8-----0-----10---p8-----0-----10---|
 G|------------------------------------------------------------------------------------------------|
 D|------------------------------------------------------------------------------------------------|
 A|------------------------------------------------------------------------------------------------|
 E|------------------------------------------------------------------------------------------------|

 


 [+]  

 
 e|-------------------10----10----10----10----10----10---------------------------------------------|
 A|/12----12----12----12----12----12----12----12----12----10----10----10----8-----8-----8-----8----|
 G|------------------------------------------------------------------------------------------------|
 D|------------------------------------------------------------------------------------------------|
 A|------------------------------------------------------------------------------------------------|
 E|------------------------------------------------------------------------------------------------|

 


 [+]  

 
 e|-8-----8-----8-----8-----8-----8-----8-----8-----8-----8-----8-----8-----8-----8-----8-----8----|
 A|-7-----7-----7-----7-----7-----7-----7-----7-----7-----7-----7-----7-----7-----7-----7-----7----|
 G|------------------------------------------------------------------------------------------------|
 D|------------------------------------------------------------------------------------------------|
 A|------------------------------------------------------------------------------------------------|
 E|------------------------------------------------------------------------------------------------|

 


 


 


 OUTRO:


 Guitar I


 

 
 e|-7-----------7-----------7-----------7-----------7-----------7-----------7-----------7----------|
 A|-9-----------9-----------9-----------9-----------10----------10----------10----------10---------|
 G|-------9-----------9-----------9-----------9-----------9-----------9-----------9-----------9----|
 D|------------------------------------------------------------------------------------------------|
 A|------------------------------------------------------------------------------------------------|
 E|------------------------------------------------------------------------------------------------|

 


 [+]  

 
 e|-3----p0-----3----p0-----3----p0-----3----p0-----5-----------5-----------5-----------5----------|
 A|-5-----------5-----------5-----------5-----------3----p0-----3----p0-----3----p0-----3----p0----|
 G|------------------------------------------------------------------------------------------------|
 D|------------------------------------------------------------------------------------------------|
 A|------------------------------------------------------------------------------------------------|
 E|------------------------------------------------------------------------------------------------|

 


 [+]  

 
 e|-7-----------7-----------7-----------7-----------7-----------7-----------7-----------7----------|
 A|-9-----------9-----------9-----------9-----------10----------10----------10----------10---------|
 G|-------9-----------9-----------9-----------9-----------9-----------9-----------9-----------9----|
 D|------------------------------------------------------------------------------------------------|
 A|------------------------------------------------------------------------------------------------|
 E|------------------------------------------------------------------------------------------------|

 


 [+]  

 
 e|-3----p0-----3----p0-----3----p0-----3----p0-----5-----------5-----------5-----------5----------|
 A|-5-----------5-----------5-----------5-----------3----p0-----3----p0-----3----p0-----3----p0----|
 G|------------------------------------------------------------------------------------------------|
 D|------------------------------------------------------------------------------------------------|
 A|------------------------------------------------------------------------------------------------|
 E|------------------------------------------------------------------------------------------------|

 


 [+]  

 
 e|-3-----------3-----------3-----------3-----------5-----------5-----------5-----------5----------||
 A|-2----p0-----2----p0-----2----p0-----2----p0-----3----p0-----3----p0-----5----p0-----3----p0----||
 G|------------------------------------------------------------------------------------------------|| x 3
 D|------------------------------------------------------------------------------------------------||
 A|------------------------------------------------------------------------------------------------||
 E|------------------------------------------------------------------------------------------------||

 


 [+]  

 
 e|-3-----------3-----------3-----------3-----------2-----------2-----------2-----------2----------|
 A|-2----p0-----2----p0-----2----p0-----2----p0-----3----p0-----3----p0-----3----p0-----3----p0----|
 G|------------------------------------------------------------------------------------------------|
 D|------------------------------------------------------------------------------------------------|
 A|------------------------------------------------------------------------------------------------|
 E|------------------------------------------------------------------------------------------------|

 


 [+]  

 
 e|/7-----------7-----------7-----------7-----------7-----------7-----------7-----------7----------||
 A|/9-----------9-----------9-----------9-----------9-----------9-----------9-----------9----------||
 G|-------9-----------9-----------9-----------9-----------9-----------9-----------9-----------9----|| x 3
 D|------------------------------------------------------------------------------------------------||
 A|------------------------------------------------------------------------------------------------||
 E|------------------------------------------------------------------------------------------------||

 


 [+]  

 
 e|-7-----------7-----------7-----------7-----------7-----------7-----------7-----------7----------|
 A|-9-----------9-----------9-----------9-----------10----------10----------10----------10---------|
 G|-------9-----------9-----------9-----------9-----------9-----------9-----------9-----------9----|
 D|------------------------------------------------------------------------------------------------|
 A|------------------------------------------------------------------------------------------------|
 E|------------------------------------------------------------------------------------------------|

 


 


 


 OUTRO:


 Guitar II (finger plucked)


 

 
 e|------------------------------------------------------------------------------------------------|
 A|------------------------------------------------------------------------------------------------|
 G|-12----12----12----12----12----12----12----12----12----9-----9-----9-----9-----9-----9-----9----|
 D|------------------------------------------------------------------------------------------------|
 A|------------------------------------------------------------------------------------------------|
 E|-12----12----12----12----12----12----12----12----12----9-----9-----9-----9-----9-----9-----9----|

 


 [+]  

 
 e|------------------------------------------------------------------------------------------------|
 A|------------------------------------------------------------------------------------------------|
 G|-7-----7-----7-----7-----7-----7-----7-----7-----7-----5-----5-----5-----5-----5-----5-----5----|
 D|------------------------------------------------------------------------------------------------|
 A|------------------------------------------------------------------------------------------------|
 E|-7-----7-----7-----7-----7-----7-----7-----7-----7-----5-----5-----5-----5-----5-----5-----5----|

 


 [+]  

 
 e|------------------------------------------------------------------------------------------------|
 A|------------------------------------------------------------------------------------------------|
 G|-12----12----12----12----12----12----12----12----12----9-----9-----9-----9-----9-----9-----9----|
 D|------------------------------------------------------------------------------------------------|
 A|------------------------------------------------------------------------------------------------|
 E|-12----12----12----12----12----12----12----12----12----9-----9-----9-----9-----9-----9-----9----|

 


 [+]  

 
 e|------------------------------------------------------------------------------------------------|
 A|------------------------------------------------------------------------------------------------|
 G|-7-----7-----7-----7-----7-----7-----7-----7-----7-----5-----5-----5-----5-----5-----5-----5----|
 D|------------------------------------------------------------------------------------------------|
 A|------------------------------------------------------------------------------------------------|
 E|-7-----7-----7-----7-----7-----7-----7-----7-----7-----5-----5-----5-----5-----5-----5-----5----|

 


 [+]  

 
 e|------------------------------------------------------------------------------------------------|
 A|------------------------------------------------------------------------------------------------|
 G|-12----12----12----12----12----12----12----12----12----9-----9-----9-----9-----9-----9-----9----|
 D|------------------------------------------------------------------------------------------------|
 A|------------------------------------------------------------------------------------------------|
 E|-12----12----12----12----12----12----12----12----12----9-----9-----9-----9-----9-----9-----9----|

 


 [+]  

 
 e|------------------------------------------------------------------------------------------------|
 A|------------------------------------------------------------------------------------------------|
 G|-7-----7-----7-----7-----7-----7-----7-----7-----7-----5-----5-----5-----5-----5-----5-----5----|
 D|------------------------------------------------------------------------------------------------|
 A|------------------------------------------------------------------------------------------------|
 E|-7-----7-----7-----7-----7-----7-----7-----7-----7-----5-----5-----5-----5-----5-----5-----5----|

 


 [+]  

 
 e|------------------------------------------------------------------------------------------------|
 A|------------------------------------------------------------------------------------------------|
 G|-12----12----12----12----12----12----12----12----12----9-----9-----9-----9-----9-----9-----9----|
 D|------------------------------------------------------------------------------------------------|
 A|------------------------------------------------------------------------------------------------|
 E|-12----12----12----12----12----12----12----12----12----9-----9-----9-----9-----9-----9-----9----|

 


 [+]  

 
 e|------------------------------------------------------------------------------------------------|
 A|------------------------------------------------------------------------------------------------|
 G|-7-----7-----7-----7-----7-----7-----7-----7-----7-----5-----5-----5-----5-----5-----5-----5----|
 D|------------------------------------------------------------------------------------------------|
 A|------------------------------------------------------------------------------------------------|
 E|-7-----7-----7-----7-----7-----7-----7-----7-----7-----5-----5-----5-----5-----5-----5-----5----|

 


 [+]  

 
 e|------------------------------------------------------------------------------------------------||
 A|------------------------------------------------------------------------------------------------||
 G|-4-----4-----4-----4-----4-----4-----4-----4-----5-----5-----5-----5-----5-----5-----5-----5----|| x 4
 D|------------------------------------------------------------------------------------------------||
 A|------------------------------------------------------------------------------------------------||
 E|-3-----3-----3-----3-----3-----3-----3-----3-----5-----5-----5-----5-----5-----5-----5-----5----||

 


 


 


 FINAL:


 Guitar I


 

 
 e|-7-----0----------------------------------------------------------------------------------------|
 A|-9-----x----------------------------------------------------------------------------------------|
 G|-------9----------------------------------------------------------------------------------------|
 D|------------------------------------------------------------------------------------------------|
 A|------------------------------------------------------------------------------------------------|
 E|------------------------------------------------------------------------------------------------|

 


 


 


 FINAL:


 Guitar II


 Guitar I


 

 
 e|------------------------------------------------------------------------------------------------|
 A|------------------------------------------------------------------------------------------------|
 G|-12---------------------------------------------------------------------------------------------|
 D|------------------------------------------------------------------------------------------------|
 A|------------------------------------------------------------------------------------------------|
 E|-12---------------------------------------------------------------------------------------------|


Important: The song above is NOT stored on the Chordie server. The original song is hosted at www.azchords.com. Chordie works as a search engine and provides on-the-fly formatting. Chordie does not index songs against artists'/composers' will. To remove this song please click here.

This song is displayed as text-only. Transposing and tuning is only available for chordpro-songs.
Rate #1 of 1 versions

Jango Player

Login - add to songbook

SHARE PAGE  



You need to log in to post comments