Guitar Tabs, Chords and Lyrics
Server problems seems to be fixed. Chordie has been experiencing problems with songs disappearing. These issues now seems to be fixed, but still verifying the fix. If you find anything strange, please email admin@chordie.com.


Usual Dosage   Unwound

 
 E|---(0)------(0)---------------------------------||
 B|-2-p0-------(0)------------(0)------(0)---------||
 G|-4-----------4-----------2-p0--------0----(0)-0-|| x 3
 D|(4)---(4)-4--------4--4-(4)----4--4----(4)-4-(4)||
 A|------------------------------------------------||
 D|------------------------------------------------||

 


 [+]  

 
 E|------------------------------------------------|
 B|-------1-----------1--------1--------1----------|
 G|----3-----3-----3-----3-----3--3--3--2--0-----0-|
 D|-3-----------3-----------3--2--2--2--2--0--0----|
 A|------------------------------------------------|
 D|------------------------------------------------|

 


 [+]  

 
 E|---(0)------(0)---------------------------------||
 B|-2-p0-------(0)------------(0)------(0)---------||
 G|-4-----------4-----------2-p0--------0----(0)-0-|| x 3
 D|(4)---(4)-4--------4--4-(4)----4--4----(4)-4-(4)||
 A|------------------------------------------------||
 D|------------------------------------------------||

 


 [+]  

 
 E|------------------------------------------------|
 B|-------1-----------1-----------------1----------|
 G|----3-----3-----3-----3-----3--3--3--3--0-----0-|
 D|-3-----------3-----------3--2--2--2--2--0--0----|
 A|------------------------------------------------|
 D|------------------------------------------------|

 


 [+]  

 
 E|---(0)------(0)---------------------------------||
 B|-2-p0-------(0)------------(0)------(0)---------||
 G|-4-----------4-----------2-p0--------0----(0)-0-|| x 3
 D|(4)---(4)-4--------4--4-(4)----4--4----(4)-4-(4)||
 A|------------------------------------------------||
 D|------------------------------------------------||

 


 [+]  

 
 E|------------------------------------------------|
 B|-------1-----------1--------1--------1----------|
 G|----3-----3-----3-----3-----3--3--3--2--0--0----|
 D|-3-----------3-----------3--2--2--2--2--0--0----|
 A|------------------------------------------------|
 D|------------------------------------------------|

 


 [+]  

 
 E|------------(0)(0)------------------------------||
 B|-------------2-p0-------------------------------||
 G|------------(2)(0)----------2-p0--------0-------|| x 4
 D|-0--------------------------------0--4b----4-p0-||
 A|-0----------------------------------------------||
 D|-0-----------------------3b---------------------||

 


 [+]  

 
 E|------------------------------------------------||
 B|-------------------------0----------------------||
 G|----------------------------0-------------------|| x 4
 D|-0-----------------------------0----------------||
 A|-0--------------------------------3b------------||
 D|-0-----------------------------------------4b---||

 


 


 


 VERSE I:


 

 
 E|------------(0)(0)------------------------------||
 B|-------------2-p0-------------------------------||
 G|------------(2)(0)----------2-p0--------0-------|| x 4
 D|-0--------------------------------0--4b----4-p0-||
 A|-0----------------------------------------------||
 D|-0-----------------------3b---------------------||

 


 [+]  

 
 E|------------------------------------------------||
 B|-------------------------0----------------------||
 G|(0)-------------------------0-------------------|| x 12
 D|(0)----------------------------0----------------||
 A|-0--------------------------------3b------------||
 D|-0-----------------------------------------4b---||

 


 


 


 BRIDGE:


 

 
 E|------------------------------------------------|
 B|------------------------------------------------|
 G|(0)---------------------------------------------|
 D|-0----------------------------------------------|
 A|-0----------------------------------------------|
 D|-0----------------------------------------------|

 


 [+] * improvised strumming strings behind bridge


 

 
 E|------------------------------------------------||
 B|------------------------------------------------||
 G|------------------------------------------------|| x 10
 D|------------------------------------------------||
 A|------------------------------------------------||
 D|------------------------------------------------||

 


 [+]  

 
 E|------------------------------------------------|
 B|-------------------------0--------0--0--------0-|
 G|-------------------------------3-----------3----|
 D|------------------------------------------------|
 A|------------------------------------------------|
 D|------------------------------------------------|

 


 [+]  

 
 E|------------------------------------------------|
 B|----0-----0--------0--------0-----0--------0----|
 G|-3-----3-----3--3--------3~-3~-3~-3~-3~-3~-3~---|
 D|------------------------------------------------|
 A|------------------------------------------------|
 D|------------------------------------------------|

 


 [+]  

 
 E|------------------------------------------------|
 B|----0-----0--------0--------0-----0--------0----|
 G|-3~-3~-3~-3~-3~-3~-3~-3~-3~-3~-3~-3~-3~-3~-3~---|
 D|------------------------------------------------|
 A|------------------------------------------------|
 D|------------------------------------------------|

 


 [+] PM______________________________________________|


 

 
 E|------------------------------------------------||
 B|------------------------------------------------||
 G|------------------------------------------------|| x 7
 D|------------------------------------------------||
 A|------------------------------------------------||
 D|-0--0--0--0--0--0--0--0--0--0--0--0--0--0--0--0-||

 


 [+] PM______________________| FB


 

 
 E|-------------------------------------------#----|
 B|-------------------------------------------#----|
 G|-------------------------------------------#----|
 D|----------------------------------------0--0----|
 A|-------------------------------0--0--0--0--0----|
 D|-0--0--0--0--0--0--0--0--0--0--0--0--0--0--0----|

 


 


 


 VERSE II:


 * *


 

 
 E|------------------------------------------------|
 B|-------------------0-----0--0-----0--------0----|
 G|-------11-11-11----0-----0--0-----0--------0----|
 D|-0-----x--x--x-----0-----x--x-----x--------x----|
 A|-0-----9--9--9-----0-----3--3-----3--------3----|
 D|-0----------------------------------------------|

 


 [+] * *


 

 
 E|------------------------------------------------|
 B|-------------------0-----0--0-----0--------0----|
 G|-------11-11-11----0-----0--0-----0--------3----|
 D|-0-----x--x--x-----0-----x--x-----x--------x----|
 A|-0-----9--9--9-----0-----3--3-----3--------1----|
 D|-0----------------------------------------------|

 


 [+] * *


 

 
 E|------------------------------------------------|
 B|-------------------0-----0--0-----0--------0----|
 G|-------11-11-11----0-----0--0-----0--------0----|
 D|-0-----x--x--x-----0-----x--x-----x--------x----|
 A|-0-----9--9--9-----0-----3--3-----3--------3----|
 D|-0----------------------------------------------|

 


 [+] * *


 

 
 E|------------------------------------------------|
 B|-------------------0-----0--0-----0--------0----|
 G|-------11-11-11----0-----0--0-----0--------3----|
 D|-0-----x--x--x-----0-----x--x-----x--------x----|
 A|-0-----9--9--9-----0-----3--3-----3--------1----|
 D|-0----------------------------------------------|

 


 [+]  

 
 E|------------------------------------------------|
 B|------------------------------------------------|
 G|-0-----------------------------------------7----|
 D|-0----------------------------------------------|
 A|-0--------------------------------9--9-\7-------|
 D|-0----------------------------------------------|

 


 [+]  

 
 E|------------------------------------------------||
 B|------------------------------------------------||
 G|-------------------------------------------7----|| x 6
 D|------------------------------------------------||
 A|------------<7>~---------------------9-\7-----7-||
 D|-0----------<7>~--------------------------------||

 


 [+]  


 [FB]  

 
 E|------------------------------------------------|
 B|------------------------------------------------|
 G|-------------------------------------#----------|
 D|-------------------------------------#----------|
 A|------------<7>~---------------------#----------|
 D|-0----------<7>~---------------------#----------|

 


 


 


 VERSE III:


 * *


 

 
 E|------------------------------------------------||
 B|-------------------0-----0--0-----0--------0----||
 G|-------11-11-11----0-----0--0-----0--------0----|| x 4
 D|-0-----x--x--x-----0-----x--x-----x--------x----||
 A|-0-----9--9--9-----0-----3--3-----3--------3----||
 D|-0----------------------------------------------||

 


 [+]  

 
 E|------------(0)(0)------------------------------||
 B|-------------2-p0-------------------------------||
 G|------------(2)(0)----------2-p0--------0-------|| x 4
 D|-0--------------------------------0--4b----4-p0-||
 A|-0----------------------------------------------||
 D|-0-----------------------3b---------------------||

 


 [+]  

 
 E|------------------------------------------------|
 B|------------------------------------------------|
 G|-0-----------------------------------------7----|
 D|-0----------------------------------------------|
 A|-0--------------------------------9--9-\7-----7-|
 D|-0----------------------------------------------|

 


 [+]  

 
 E|------------------------------------------------||
 B|------------------------------------------------||
 G|-------------------------------------------7----|| x 7
 D|------------------------------------------------||
 A|------------<7>~---------------------9-\7-----7-||
 D|-0----------<7>~--------------------------------||

 


 [+]  

 
 E|------------------------------------------------|
 B|------------------------------------------------|
 G|------------------------------------------------|
 D|------------<7>~--------------------------------|
 A|------------<7>~--------------------------------|
 D|-0----------------------------------------------| 


Important: The song above is NOT stored on the Chordie server. The original song is hosted at www.azchords.com. Chordie works as a search engine and provides on-the-fly formatting. Chordie does not index songs against artists'/composers' will. To remove this song please click here.

This song is displayed as text-only. Transposing and tuning is only available for chordpro-songs.
Rate #1 of 1 versions

Jango Player

Login - add to songbook

SHARE PAGE  



You need to log in to post comments