Guitar Tabs, Chords and Lyrics
Server problems seems to be fixed. Chordie has been experiencing problems with songs disappearing. These issues now seems to be fixed, but still verifying the fix. If you find anything strange, please email admin@chordie.com.


Zamisli  Van Gogh

Van Gogh / Zamisli:
credits: Boris Zivkovic (walkaway)
Tuning : E A D G B E
Intro:
 
 |--------------------12--14--16--14----12------------------------------|
 |12----10------------------------------------------12/-14----12h13h1412|
 |----------11------------------------------------------------------------|
 |------------------------------------------------------------------------|
 |------------------------------------------------------------------------|
 |------------------------------------------------------------------------|
 |----------------------------------------------------------------|
 |10--------------------------------------------------------------|
 |----119-------7---------7---9c----------7h--8h--9p7----------|
 |----------9---------9----------------------------------------9-|
 |----------------------------------------------------------------|
 |----------------------------------------------------------------|

verse 1:
[Bm]Nekako zbunjeno cekamo dane
da o[Fism]dletimo sto pre,
[Bm]tamo gde stize se kasnije
gde [Fism]neko ceka na nas.
ref:
[Em]Ako ti [A]jave [D]nekad
[Em]da vise [A]nema m[D]e,
[Em]ako ti j[A]ave ne[D]kad,
[Em]mozda me[D]ne [Em]ni bilo n[D]ije,
[Em]zam[D]isli[ABm] me...
Onda ide popularni solo:
 
 |----------------------------------------------------------------------------|
 |----------------------------------------------------------------------------|
 |--4---4---4---4---4---2---2---4h--6---6---6---6---6---4---4---------------|
 |----------------------------------------------------------------------------|
 |----------------------------------------------------------------------------|
 |----------------------------------------------------------------------------|
 |----------------------------------------------------------------------------|
 |----------------------------------------------------------------------------|
 |2h3h4-----4---4---4---4---4---4-------2h3h4-------4---4---4---4-----------|
 |----------------------------------------------------------------------------|
 |----------------------------------------------------------------------------|
 |----------------------------------------------------------------------------|
 |----------------------------------------------------------------------------|
 |----------------------------------------------------------------------------|
 |--4---4---2-----4---4---4---4---4---2---2---4h--6---6---6---6-------------|
 |----------------------------------------------------------------------------|
 |----------------------------------------------------------------------------|
 |----------------------------------------------------------------------------|
 |----------------------------------------------------------------------------|
 |----------------------------------------------------------------------------|
 |6---4---4-----2h3h4-----4---4---4---4---4---4-----2h3h4-----4-------------|
 |----------------------------------------------------------------------------|
 |----------------------------------------------------------------------------|
 |----------------------------------------------------------------------------|
 |----------------------------------------------------------------------------|
 |----------------------------------------------------------------------------|
 |4---4---4---4---4---2---4--------------------------------------------------|
 |----------------------------------------------------------------------------|
 |----------------------------------------------------------------------------|
 |----------------------------------------------------------------------------|

verse 2:
Ovde okidati samo F#m:
En den dini sava raka tini
sava raka tika taka
elem belem buf
en den dini sava raka tini
sava raka tika taka truf
verse 3:
Nekako zbunjeno ljuljamo
klatno zivota, zadnji put,
koje ko sneg na toplom dlanu
topi nas, zauvek...
Onda opet refren i solo
BASS:
 
 |----------------------------------------------------------------------------|
 |----------------------------------------------------------------------------|
 |----------------------------------------------------------------------------|
 |----------------------------------------------------------------------------|
 |----------------------------------------------------------------------------|
 |----7---5---7-------5h6h7-----------7---5---7-------5h6h7-----------------|
 |----------------------------------------------------------------------------|
 |----------------------------------------------------------------------------|
 |----------------------------------------------------------------------------|
 |----------------------------------------------------------------------------|
 |----------------------------------------------------------------------------|
 |----2---0---2-------0h1h2-----------2---0---2-------0h1h2-----------------|


Important: The song above is NOT stored on the Chordie server. The original song is hosted at www.azchords.com. Chordie works as a search engine and provides on-the-fly formatting. Chordie does not index songs against artists'/composers' will. To remove this song please click here.

Text color:
Chord color:
Chord grids: 
Font size:    
Page size: 

A Bm D Em
Rate #1 of 2 versions

Jango Player

Login - add to songbook

SHARE PAGE  



You need to log in to post comments