Guitar Tabs, Chords and Lyrics
Login is temporarily disabled for some users. Do not panic. Will be back in an hour or two. DO NOT REREGISTER!!


Iâ??ll Wait   Van Halen

 
 -1 -1 -1 -1 -1 -1 +1
 e-|--------------------------------------------------------------------------------|
 B-|--------------------------------------------------------------------------------|
 G-|----------7NH-7NH-7NH-\-7NH-\-7NH-7NH-7NH-\-7NH-\-7NH-7NH-7NH-\-7NH-\-7b--r-5---|
 D-|------------------------------------------------------------------------------7-|
 A-|--------------------------------------------------------------------------------|
 E-|--------------------------------------------------------------------------------|

 


 [+1] [+1] [+1]  

 
 e-|---------------------------------------------17b--------------------------------|
 B-|---------------6--8-------------------------------15-17b17b-r-15-17----15-------|
 G-|--5--7--5b-x-7x--x-x7------------------16p12------------------------14----------|
 D-|---------------------x5----------14p12------------------------------------------|
 A-|-----------------------x8--12p10------------------------------------------------|
 E-|--------------------------------------------------------------------------------|

 


 +1 pick fast +1 +1 +1 +1 +.5 +.5 +1


 

 
 e-|---------------------------------------------------------------------------------|
 B-|16brp15-----------15--17b17pb17pb17br15------------------------------------------|
 G-|--------14------14--14-----------------14-17brp14--17brp14---17b--r--------------|
 D-|-----------15--15--------------------------------15-------15---------------------|
 A-|---------------------------------------------------------------------------------|
 E-|---------------------------------------------------------------------------------|
 e-|--------20------------20--------------------------------10h13-------------------|
 B-|20b-20pb--20b-20b-20pb--18b---------------------10h12h13------------------------|
 G-|------------------------------------------7h8h10--------------------------------|
 D-|---------------------------------7--7h8h10-------------------3AH-3AHp0-3AH-3AHp0|
 A-|-----------------------------8h10-10--------------------------------------------|
 E-|--------------------------------------------------------------------------------|

 


 use tremolo bar to wiggle up and down 1 step.


 When you get to the natural harmonic 1 step down


 then you go 2 steps up.


 

 
 e-|-12s10----10s8------------------------------------------------------------------|
 B-|------10~~----8~~---------------------------------------------------------------|
 G-|-----------------5\/\/7\/\/8\/\/10\/\/-7NH\/\/n\--------------------------------|
 D-|--------------------------------------------------------------------------------|
 A-|--------------------------------------------------------------------------------|
 E-|--------------------------------------------------------------------------------|


Important: The song above is NOT stored on the Chordie server. The original song is hosted at www.azchords.com. Chordie works as a search engine and provides on-the-fly formatting. Chordie does not index songs against artists'/composers' will. To remove this song please click here.

This song is displayed as text-only. Transposing and tuning is only available for chordpro-songs.
Rate #1 of 5 versions

Jango Player

Login - add to songbook

SHARE PAGE  




You need to log in to post comments