Guitar Tabs, Chords and Lyrics
Server problems seems to be fixed. Chordie has been experiencing problems with songs disappearing. These issues now seems to be fixed, but still verifying the fix. If you find anything strange, please email admin@chordie.com.


Domino  Van Morrison

Intro
Q=132
[A] [D] [A] [D6] 
[4/4] Gtr I (El. Gtr.)
a S S E E E +Q E E a S S E E E Q E E
 
 |-----------x-10-(10)--x----|-----------x-7-7--x---|
 |---10------x-10-(10)--x----|---10------x-7-7--x---|
 |-9h11p9----x-11-(11)--x----|-9h11p9----x-7-7--x---|
 |--------11--------------11-|--------11----------9-|
 |---------------------------|----------------------|
 |---------------------------|----------------------|

[A]a S S E E [D] E +Q E E [A]a S S E E [D6]E +E E E E
 
 |-----------x-10-(10)--x----|-------------7-(7)-7-7-x--||
 |---10------x-10-(10)--x----|---10--------7-(7)-7-7-x--||
 |-9h11p9----x-11-(11)--x----|-9h11p9------7-(7)-7-7-x--||
 |--------11--------------11-|--------11-x--------------||
 |---------------------------|--------------------------||
 |---------------------------|--------------------------||

1st & 2nd Verse
$
[A]a S S E E [D] E +Q E E [A]a S S E E [D6]E Q E E [A] E E E [D6]E +E E E E
 
 |-----------x-10-(10)--x----|-----------x-7-7--x---|--------7-(7)-7-x-----|
 |---10------x-10-(10)--x----|---10------x-7-7--x---|-10-x-x-7-(7)-7-x-----|
 |-9h11p9----x-11-(11)--x----|-9h11p9----x-7-7--x---|--9-x-x-7-(7)-7-x-----|
 |--------11--------------11-|--------11----------9-|------------------11--|
 |---------------------------|----------------------|----------------------|
 |---------------------------|----------------------|----------------------|

[A] E E E [D6]E +E E E E [A] E E E [D6]E +E E E [A] E E E [D/F#]S S E +E E E E
 
 |---------------------|--------7-(7)-7-x----|-----------------------|
 |-10-x-x-------7-x----|-10-x-x-7-(7)-7-x----|-10-x-----------7------|
 |--9-x-x-7-(7)---x----|--9-x-x-7-(7)-7-x--9-|--9-x-----7-(7)---x----|
 |--------7-(7)---x-11-|------------------11-|----------7-(7)---x-11-|
 |---------------------|---------------------|------7h9-9-(9)---x----|
 |---------------------|---------------------|-----------------------|

[A] [D6] [A]  
[E] [E] [E] [E] [+E] [E] [E] [E] [E] [E] [E] [E] [E] [E] [E] [E]  
 
 |--------7-(7)-7-x---|--------------------|
 |-10-x-x-7-(7)-7-x---|--------------------|
 |--9-x-x-7-(7)-7-x---|-7-----(0)---x-x----|
 |--------------------|-7-----------x-x-11-|
 |------------------9-|--------------------|
 |--------------------|--------------------|

a S S E E [D6]E Q E E [A] E E E [D6]E +E E E E
 
 |-----------x-7-7--x---|--------7-(7)-7-x-----|
 |---10------x-7-7--x---|-10-x-x-7-(7)-7-x-----|
 |-9h11p9----x-7-7--x---|--9-x-x-7-(7)-7-x-----|
 |--------11----------9-|------------------11--|
 |----------------------|----------------------|
 |----------------------|----------------------|

[A] [D6] [A] [D6] [A] 
[E] [E] [E] [E] [+E] [E] [E] [E] [E] [E] [E] [E] [+E] [E] [E] [E]  
 
 |--------7-(7)-7-x----|---------------------|
 |-10-x-x-7-(7)-7-x----|-10-x-x-------7-x----|
 |--9-x-x-7-(7)-7-x--9-|--9-x-x-7-(7)---x----|
 |------------------11-|--------7-(7)---x-11-|
 |---------------------|---------------------|
 |---------------------|---------------------|

a S S E E [D6]E Q E E [A] E E E [D6]E +E E E E
 
 |-----------x-7-7--x---|--------7-(7)-7-x-----|
 |---10------x-7-7--x---|-10-x-x-7-(7)-7-x-----|
 |-9h11p9----x-7-7--x---|--9-x-x-7-(7)-7-x-----|
 |--------11----------9-|------------------11--|
 |----------------------|----------------------|
 |----------------------|----------------------|

[A] [D6] [A] [D6]  
[E] [E] [E] [E] [+E] [E] [E] [E] [E] [E] [E] [E] [+E] [E] [E] [E]  
 
 |--------7-(7)-7-x----|---------------------||
 |-10-x-x-7-(7)-7-x----|-10-x-x-------7-x----||
 |--9-x-x-7-(7)-7-x--9-|--9-x-x-7-(7)---x----||
 |------------------11-|--------7-(7)---x-11-||
 |---------------------|---------------------||
 |---------------------|---------------------||

Chorus
[A]Q E E a [D]E E E E E [A]E E E a [D]E E E E
 
 |------------------|-----5--------------|
 |----2-----3-3-----|-----5-------3-3----|
 |----2---2h4-2---2-|---2----------------|
 |-2----4-------4---|-------4-2h4--------|
 |-0----------------|-----------------0--|
 |------------------|--------------------|

[A] [D] [A] [D] [A] 
[E] [E] [E] [E] [a] [E] [E] [E] [E] [+E] [E] [E] [E] [a] [E] [E] [E] [E]  
 
 |-------------------|-------5-------------|
 |-----2-----3-------|-----2---------3-----|
 |-----2---2h4-2-----|---------------------|
 |---------------4-2-|-(2)-----4-2h4---4-2-|
 |-0-0---0---------0-|-(0)---------------0-|
 |-------------------|---------------------|

+E E E E [D]E E E [A]E +Q E E a [D]E E E [A]E
 
 |-------------------|--------------------|
 |-------2-x-3-3-----|------2-------------|
 |-----2-2-x-4-2-----|------2-------2-4---|
 |-(2)-2---------4-2-|-(2)----2-2h4-----2-|
 |-(0)-------------0-|-(0)----0---------0-|
 |-------------------|--------------------|

+Q E E [D]E E E [A]E +E E E E a [D]E E E E
 
 |------------------|-------5-------------|
 |------2---3-3-----|-------2-------------|
 |------2---4-2-----|-----2---------2-2-2-|
 |-(2)----2-----4-2-|-(2)-----2-2h4-------|
 |-(0)------------0-|-(0)-----------------|
 |------------------|---------------------|

[A] [D] [A] [D] ~
+Q q E E E E +E E E E +E E E E
 
 |-------------7---|-------5-----------------|
 |------2----7---2-|-(2)-2-3----------2------|
 |-(2)--2--------2-|-(2)-2---4b6==(4)---4r-2-|
 |---------7-----2-|-(2)---------------------|
 |-----------------|-------------------------|
 |-----------------|-------------------------|

~~~[A] [D] [A] [D]
+E E S S E +E E E E E E E E E E E E
 
 |-------------------7---|-----------------|
 |-----------2-(2)-2-7---|-----2---3-3-----|
 |-(2)-2-----2-(2)-2-----|-----2---4-2---2-|
 |-------2h4-----------2-|-2-2---4-----4---|
 |---------------------0-|-0-0-------------|
 |-----------------------|-----------------|

N.C.
E E E E E E E E E E E E E E Q
 
 |-----------------|-------------------|
 |-----------------|-------------------|
 |-----------------|-------------------|
 |-----------------|-------------------|
 |-2-2-4-4-5-5-6-6-|-7-7-9-9-10-10-11--|
 |-----------------|-------------------|

Q [D6]E E +E E E [A/C#]E E E E [D]E +E E E E
 
 |----x-7-(7)-7-x-5-|-x-x-x-7-(7)-7-x-x-|
 |----x-7-(7)-7-x-5-|-x-x-x-7-(7)-7-x-x-|
 |----x-7-(7)-7-x-6-|-x-x-x-7-(7)-7-x-x-|
 |------------------|-------------------|
 |-0----------------|-------------------|
 |------------------|-------------------|

N.C. A/C#
E E a E E a E E a E E E E E E E E E S S
 
 |-----------------------|-------------5-5-5--|
 |-----------------------|-------------5-5-5--|
 |---------2-----2-----2-|-------------6-6-6--|
 |-----2s4---2s4---2s4---|--------------------|
 |-2-2-------------------|--------------------|
 |-----------------------|-0-0-0-0-0-0--------|

To Coda
E E E [D6]E +E E E [A/C#]S S S S S S E [D6]E +E E Q
 
 |-5-x-x-7-(7)-7-x-5-5-|-5-x-x-x-5-7-(7)-7----||
 |-5-x-x-7-(7)-7-x-5-5-|-5-x-x-x-5-7-(7)-7----||
 |-6-x-x-7-(7)-7-x-6-6-|-6-x-x-x-6-7-(7)-7----||
 |---------------------|----------------------||
 |---------------------|----------------------||
 |---------------------|----------------------||

|
| Gtr II (Horns arr. for Gtr.)
| W W
 
 |---------------------|----------------------||
 |---------------------|----------------------||
 |---------------------|----------------------||
 |---------------------|----------------------||
 |---------------------|----------------------||
 |---------------------|----------------------||

Interlude
[A] [D] [A] [D6] [A] 
[E] [E] [E] [E] [+E] [E] [E] [E] [+E] [E] [E] [E] [+E] [E] [E] [E]  
 
 |--9-x-x-10-(10)-10--x--9-|--(9)--9-x--7-(7)-7--x--9-|
 |-10-x-x-10-(10)-10--x-10-|-(10)-10-x--7-(7)-7--x-10-|
 |--9-x-x-11-(11)-11--x--9-|--(9)--9-x--7-(7)-7--x--9-|
 |-------------------------|--------------------------|
 |-------------------------|--------------------------|
 |-------------------------|--------------------------|

|
| q E E E E E E E E E E Q E E
 
 |-------------------------|--------------------------|
 |-------------------------|--------------------14----|
 |----------------------14-|------14------14----------|
 |----------------14-16----|-----------16-------------|
 |-12-----14--16-----------|--------------------------|
 |-------------------------|--------------------------|

E E E [D] E +E E E [A] E +E E E [D6] E +E E E S [A] S
 
 |--9--9-x-10-(10)-10--x--9-|--(9)--9-x--7-(7)-7---7--9-|
 |-10-10-x-10-(10)-10--x-10-|-(10)-10-x--7-(7)-7---7-10-|
 |--9--9-x-11-(11)-11--x--9-|--(9)--9-x--7-(7)-7---7--9-|
 |--------------------------|---------------------------|
 |--------------------------|---------------------------|
 |--------------------------|---------------------------|

|
| q E E E E E E E E E E Q Q
 
 |--------------------------|---------------------------|
 |--------------------------|---------------------------|
 |-----------------------14-|------14------14\----------|
 |-----------------14-16----|-----------16--------------|
 |-12------14--16-----------|---------------------------|
 |--------------------------|---------------------------|

E E E [D] E +E E E [A] S S E E E [D6]E +E E E [A] E
 
 |--9--9-x-10-(10)-10-x--9--9-|---9---9-x-7-(7)--7--x--9--|
 |-10-10-x-10-(10)-10-x-10-10-|--10--10-x-7-(7)--7--x-10--|
 |--9--9-x-11-(11)-11-x--9--9-|---9---9-x-7-(7)--7--x--9--|
 |----------------------------|---------------------------|
 |----------------------------|---------------------------|
 |----------------------------|---------------------------|

|
| W +H E E E E
 
 |----------------------------|---------------------------|
 |-10-------------------------|-(10)----------------------|
 |----------------------------|---------------------------|
 |----------------------------|-------------16--14--------|
 |----------------------------|--------------------16-14--|
 |----------------------------|---------------------------|

D.S. al Coda &
q E [D] E q E [A] E E E E [D6]E E E E [A]S S
 
 |--9---9-10-10--x--9-|---9---9-x-7-7-7-x-----||
 |-10--10-10-10--x-10-|--10--10-x-7-7-7-x-8-8-||
 |--9---9-11-11--x--9-|---9---9-x-7-7-7-x-7-7-||
 |--------------------|-------------------9-9-||
 |--------------------|-------------------0-0-||
 |--------------------|-------------------0-0-||

|
| W +H. Q
 
 |--------------------|-----------------------||
 |--------------------|-----------------------||
 |--------------------|-----------------------||
 |--------------------|-----------------------||
 |-12-----------------|-(12)------------------||
 |--------------------|-----------------------||

Chorus
[A] [D] [A] [D6] [A] 
[E] [E] [E] [E] [+E] [E] [E] [E] [+E] [E] [E] [E] [+E] [E] [E] [E]  
 
 |--9-x-x-10-(10)-10-x--9-|--(9)--9-x-7-(7)-7-x--9-|
 |-10-x-x-10-(10)-10-x-10-|-(10)-10-x-7-(7)-7-x-10-|
 |--9-x-x-11-(11)-11-x--9-|--(9)--9-x-7-(7)-7-x--9-|
 |------------------------|------------------------|
 |------------------------|------------------------|
 |------------------------|------------------------|

|
| W W
 
 |------------------------|------------------------|
 |------------------------|------------------------|
 |------------------------|------------------------|
 |------------------------|------------------------|
 |------------------------|------------------------|
 |------------------------|------------------------|

[D] [A] [D6] [A] 
[E] [E] [E] [E] [+E] [E] [E] [E] [+E] [E] [E] [E] [+E] [E] [E] [E]  
 
 |--9-x-x-10-(10)-10-x--9-|--(9)--9-x-7-(7)-7-x--9-|
 |-10-x-x-10-(10)-10-x-10-|-(10)-10-x-7-(7)-7-x-10-|
 |--9-x-x-11-(11)-11-x--9-|--(9)--9-x-7-(7)-7-x--9-|
 |------------------------|------------------------|
 |------------------------|------------------------|
 |------------------------|------------------------|

[D] [A] [D6] [A] 
[E] [E] [E] [E] [+E] [E] [E] [E] [+E] [E] [E] [E] [+E] [E] [E] [E]  
 
 |--9-x-x-10-(10)-10-x--9-|--(9)--9-x-7-(7)-7-x--9--|
 |-10-x-x-10-(10)-10-x-10-|-(10)-10-x-7-(7)-7-x-10--|
 |--9-x-x-11-(11)-11-x--9-|--(9)--9-x-7-(7)-7-x--9--|
 |------------------------|-------------------------|
 |------------------------|-------------------------|
 |------------------------|-------------------------|

[D] [A] [D6] [A] 
[E] [E] [E] [E] [+E] [E] [E] [E] [+E] [E] [E] [E] [+E] [E] [E] [E]  
 
 |--9-x-x-10-(10)-10-x--9-|--(9)--9-x-7-(7)-7-x--9-|
 |-10-x-x-10-(10)-10-x-10-|-(10)-10-x-7-(7)-7-x-10-|
 |--9-x-x-11-(11)-11-x--9-|--(9)--9-x-7-(7)-7-x--9-|
 |------------------------|------------------------|
 |------------------------|------------------------|
 |------------------------|------------------------|

[D6] [A] [D6] [A] 
[E] [E] [E] [E] [+E] [E] [E] [E] [+E] [E] [E] [E] [+E] [E] [E] [E]  
 
 |--9-x-x-10-(10)-10-x--9-|--(9)--9-x-7-(7)-7-x--9--||
 |-10-x-x-10-(10)-10-x-10-|-(10)-10-x-7-(7)-7-x-10--||
 |--9-x-x-11-(11)-11-x--9-|--(9)--9-x-7-(7)-7-x--9--||
 |------------------------|-------------------------||
 |------------------------|-------------------------||
 |------------------------|-------------------------||

Outro
[A] [D] [A] [D6] [A] 
[E] [E] [E] [E] [+E] [E] [E] [E] [+E] [E] [E] [E] [+E] [E] [E] [E]  
 
 |--9-x-x-10-(10)-10--x--9-|--(9)--9-x--7-(7)-7--x--9-|
 |-10-x-x-10-(10)-10--x-10-|-(10)-10-x--7-(7)-7--x-10-|
 |--9-x-x-11-(11)-11--x--9-|--(9)--9-x--7-(7)-7--x--9-|
 |-------------------------|--------------------------|
 |-------------------------|--------------------------|
 |-------------------------|--------------------------|

|
| Gtr II
| q E E E E E E E E E E Q E E
 
 |-------------------------|--------------------------|
 |-------------------------|--------------------14----|
 |----------------------14-|------14------14----------|
 |----------------14-16----|-----------16-------------|
 |-12-----14--16-----------|--------------------------|
 |-------------------------|--------------------------|

[D] [A] [D6] [A] 
[E] [E] [E] [E] [+E] [E] [E] [E] [+E] [E] [E] [E] [+E] [E] [E] [E]  
 
 |--9-x-x-10-(10)-10--x--9-|--(9)--9-x--7-(7)-7-x--9--|
 |-10-x-x-10-(10)-10--x-10-|-(10)-10-x--7-(7)-7-x-10--|
 |--9-x-x-11-(11)-11--x--9-|--(9)--9-x--7-(7)-7-x--9--|
 |-------------------------|--------------------------|
 |-------------------------|--------------------------|
 |-------------------------|--------------------------|

|
| q E E E E E E E E E E Q Q
 
 |-------------------------|--------------------------|
 |-------------------------|--------------------------|
 |----------------------14-|------14------14\---------|
 |----------------14-16----|-----------16-------------|
 |-12-----14--16-----------|--------------------------|
 |-------------------------|--------------------------|

E E E E E E E [D] E E [A] Q E [D] Q [A] Q
 
 |--9--9-x--9--9--9--9-10-|------9---9-10----9---|
 |-10-10-x-10-10-10-10-10-|-----10--10-10---10---|
 |--9--9-x--9--9--9--9-11-|------9---9-11----9---|
 |------------------------|----------------------|
 |------------------------|----------------------|
 |------------------------|----------------------|

|
| W +H E E E E
 
 |------------------------|--------------------5-|
 |------------------------|-------------5-7------|
 |------------------------|----------------------|
 |--7---------------------|-(7)------------------|
 |------------------------|----------------------|
 |------------------------|----------------------|

E E E E E E [D6A]E E E Q E q Q
 
 |--9---9-x--9--9--9-7--9-|------9---9--9------*|
 |-10--10-x-10-10-10-7-10-|-----10--10-10------*|
 |--9---9-x--9--9--9-7--9-|------9---9--9------*|
 |------------------------|--------------------*|
 |------------------------|--------------------*|
 |------------------------|--------------------*|

|
| +W +H H
 
 |-(5)--------------------|-(5)----------------*|
 |------------------------|--------------------*|
 |------------------------|--------------------*|
 |------------------------|--------------------*|
 |------------------------|--------------------*|
 |------------------------|--------------------*| 


Important: The song above is NOT stored on the Chordie server. The original song is hosted at www.azchords.com. Chordie works as a search engine and provides on-the-fly formatting. Chordie does not index songs against artists'/composers' will. To remove this song please click here.

Text color:
Chord color:
Chord grids: 
Font size:    
Page size: 

A A/C# D D/F# D6 E
Rate #1 of 2 versions

Jango Player

Login - add to songbook

SHARE PAGE  



You need to log in to post comments