Guitar Tabs, Chords and Lyrics
Update 25:10. 13:00. Site is back up running again. Songbooks are recovered. Woring on getting search back up..


Wild Night  Van Morrison

(Intro:) 4 bars with just guitar (Em Em vii G/G6/G/G6G/G6/G/G6 x2 )
Then add groove for 4 bars, then vocals start.
[Em] [G]  
 
 E|--------------------------------------------------------------------------------------|
 B|--------------------------------------------------------------------------------------|
 G|--------------------------------------------------------------------------------------|
 D|--------5--------------------5------------------------------------5----5--------------|
 A|--7--------7--5-----5--7--------7--5---------------------5--7--5----------7--5-----5--|
 E|-----------------7--------------------7\-5--3----3--3/7-------------------------7-----|

1 & 3 & 4 & 1 & 3 & 4 & 1 & 3 & 4 & 1 & 3 & 4 &
(Verses:)
[Em] [G]  
 
 E|--------------------------------------------------------------------------------------|
 B|--------------------------------------------------------------------------------------|
 G|--------------------------------------------------------------------------------------|
 D|--------5--------------------5------------------------------------5----5--------------|
 A|--7--------7--5-----5--7--------7--5---------------------5--7--5----------7--5-----5--|
 E|-----------------7--------------------7\-5--3----3--3/7-------------------------7-----|

[Em] [G]  
 
 E|--------------------------------------------------------------------------------------|
 B|--------------------------------------------------------------------------------------|
 G|--------------------------------------------------------------------------------------|
 D|--------5--------------------5------------------------------------5----5--------------|
 A|--7--------7--5-----5--7--------7--5---------------------5--7--5----------7--5-----5--|
 E|-----------------7--------------------7\-5--3----3--3/7-------------------------7-----|

[Em] [G]  
 
 E|--------------------------------------------------------------------------------------|
 B|--------------------------------------------------------------------------------------|
 G|--------------------------------------------------------------------------------------|
 D|--------5--------------------5--------------------------------------------------------|
 A|--7--------7--5-----5--7--------7--5---------------------5-----7-------7-----7-----2--|
 E|-----------------7--------------------7\-5--3----3--3/7-------------------------------|

1 & 3 & 4 & 1 & 3 & 4 & 1 & 3 & 4 & 1 & & &
C D G (and every...)
 
 E|--------------------------------------------------------------------------------------|
 B|--------------------------------------------------------------------------------------|
 G|--------------------------------------------------------------------------------------|
 D|---------------5--7--5--------------7--9--7----------------------5--------------------|
 A|--3-----3??3/7-----------5-----5??5/9----------------------5--7--5----------------------|
 E|---------------------------------------------3----3--3/7------------------------------|
 --------------------------------------------- page 2 ----------------------------------------

?
(Thing looks so complete)
[Em] [C] [Em] [C]  
 
 E|----------------------------------------------------------------------------------------|
 B|----------------------------------------------------------------------------------------|
 G|----------------------------------------------------------------------------------------|
 D|-------------------------------5??5h7p-5-----------------------------------5??5h7p-5------|
 A|--7-------7--5-----3-----3?? 3/7---------7--5--7-------7--5-----3-----3--3/7---------7??5-|
 E|----------------------------------------------------------------------------------------|

1 2 3 & 4 & 1 & 2 & 3 & 4 & 1 2 3 & 4 & 1 & 2 & 3 & 4 &
(flyin' cryin')
[Em] [C] [D] [D7]  
 
 E|------------------------------------------------10------8-------7--------5--------------|
 B|----------------------------------------------------------------------------------------|
 G|---------------------------------------------/11-----/9------/7-------/5----------------|
 D|-------------------------------5??5h7p-5-------------------------------------------------|
 A|--7-------7--5-----3-----3?? 3/7---------7-----------------------------------------------|
 E|----------------------------------------------------------------------------------------|

1 2 3 & 4 & 1 & 2 & 3 & 4 & 1 & & 3 4 & 1 & 2 & 3 & 4 &
(ooo) (wee)
[Em] [C] [D] [Em]  
 
 E|---------------------------------------------------------------------------------------|
 B|---------------------------------------------------------------------------------------|
 G|----------------------------------------------------------------------7----------------|
 D|------------------------------------------------------------------/9----9---7---5------|
 A|--7-------7--7--7-----7-------7--7--7------7-------7--7--7-----7-------------------7---|
 E|---------------------------------------------------------------------------------------|

1 & 3 & 1 & 3 & 1 & 3 & 1 2 & 3 & 4 &
(The wild night is callin')
[C] [D] [G]  
 
 E|--------------------------------------------------------------------------------------|
 B|--------------------------------------------------------------------------------------|
 G|--------------------------------------------------------------------------------------|
 D|-------------------------------------------------------------------5----5--5--5-------|
 A|--7-------7--7-----5--5-------5--5--5---------------------5--7--5----------------7--5-|
 E|-------------------------------------------3-------3--3/7-----------------------------|

1 & 3 & 1 & 3 & 1 & 3 & 4 & 1 & 3 & 4 &
(ooo) (wee)
[Em] [C] [D] [Em]  
 
 E|---------------------------------------------------------------------------------------|
 B|---------------------------------------------------------------------------------------|
 G|----------------------------------------------------------------------7----------------|
 D|------------------------------------------------------------------/9----9---7---5------|
 A|--7-------7--7--7-----7-------7--7--7------7-------7--7--7-----7-------------------7---|
 E|---------------------------------------------------------------------------------------|

1 & 3 & 1 & 3 & 1 & 3 & 1 2 & 3 & 4 &
(The wild night is callin')
C D G (Well the
 
 E|--------------------------------------------------------------------------------------|
 B|--------------------------------------------------------------------------------------|
 G|--------------------------------------------------------------------------------------|
 D|----------------------------------7--9--7-------------------------5-------------------|
 A|--7-------7--7-----5--5-----5??5/9------------------------5--7--5----------------------|
 E|-------------------------------------------3-------3--3/7-----------------------------|

1 & 3 & 1 & 3 & 4 & 1 & 3 & 4 & 1
 
 --------------------------------------------- page 3 ----------------------------------------

(Wildddddddd Night is callin')
[Em] [G]  
 
 E|--------------------------------------------------------------------------|
 B|-------------------------------------------8/10--8------8/10--8-----------|
 G|-9p7--9p7--9p7----7--9p7--9p7--9p7----7----7/9---7------7/9---7---------7-|
 D|----------------9------------------ 9---9-----------------------------9---|
 A|--------------------------------------------------------------------------|
 E|--------------------------------------------------------------------------|

1 & 2 & 3 & 4 & 1 & 2 & 3 & 4 & 1 2 3 1 & 4 &
(The Wildddddddd Night is callin' come on out and )
[Em] [G]  
 
 E|--------------------------------------------------------------------------|
 B|-------------------------------------------8/10--8------8/10--8-----------|
 G|-9p7--9p7--9p7----7--9p7--9p7--9p7----7----7/9---7------7/9---7---------7-|
 D|----------------9------------------ 9---9-----------------------------9---|
 A|--------------------------------------------------------------------------|
 E|--------------------------------------------------------------------------|

1 & 2 & 3 & 4 & 1 & 2 & 3 & 4 & 1 2 3 1 & 4 &
(dance come on out and make romance come on out and)
[Em] [G]  
 
 E|--------------------------------------------------------------------------------------|
 B|--------------------------------------------------------------------------------------|
 G|--------------------------------------------------------------------------------------|
 D|--------5--------------------5--------------------------------------------------------|
 A|--7--------7--5-----5--7--------7--5---------------------5-----7-------7-----7-----2--|
 E|-----------------7--------------------7\-5--3----3--3/7-------------------------------|

1 & 3 & 4 & 1 & 3 & 4 & 1 & 3 & 4 & 1 & & &
(dance, come on out. make romance) (sax solo
[C] [D] [G]  
 
 E|------------------------------------------------------------------------3/5--3---2-3--|
 B|--------------------------------------------------------------------------------------|
 G|--------------------------------------------------------------------------------------|
 D|---------------5--7--5--------------7--9--7----------------------5--------------------|
 A|--3-----3??3/7-----------5-----5??5/9----------------------5--7--5----------------------|
 E|---------------------------------------------3----3--3/7------------------------------|

(sax solo, then repeat _this_ page to here and stop)
[Em] [G]  
 
 E|------------------------------------------------------------------------3/5--3---2-3--|
 B|--5----------------3-5-3--------------0-3-0-------------------------------------------|
 G|--------------------------------------------------------------------------------------|
 D|--------------------------------------------------------------------------------------|
 A|--------------------------------------------------------------------------------------|
 E|--------------------------------------------------------------------------------------|

Em G (well, the)
 
 E|------------------------7------------7------------------------------------------------|
 B|--5------------------5/8--------------------------------------------------------------|
 G|--------------------------------------------------------------------------------------|
 D|--------------------------------------------------------------------------------------|
 A|--------------------------------------------------------------------------------------|
 E|--------------------------------------------------------------------------------------| 


Important: The song above is NOT stored on the Chordie server. The original song is hosted at www.azchords.com. Chordie works as a search engine and provides on-the-fly formatting. Chordie does not index songs against artists'/composers' will. To remove this song please click here.

Text color:
Chord color:
Chord grids: 
Font size:    
Page size: 

C D D7 Em G
Rate #7 of 11 versions

Jango Player

Login - add to songbook

SHARE PAGE  



You need to log in to post comments