Guitar Tabs, Chords and Lyrics
Server problems seems to be fixed. Chordie has been experiencing problems with songs disappearing. These issues now seems to be fixed, but still verifying the fix. If you find anything strange, please email admin@chordie.com.


Accelerating Universe  Vektor

[0:00] 
[4/4] Q=105
H Q E E W +H. E E W +H. E E
 
 |-------------|----------|--------------|----------|----------------|
 |-------------|----------|--------------|----------|----------------|
 |-------------|----------|--------------|----------|----------------|
 |---------3-2-|----------|----------3-2-|----------|----------3-2---|
 |---------1-0-|-2--------|-(2)------1-0-|-2--------|-(2)------1-0---|
 |-------------|-0--------|-(0)----------|-0--------|-(0)------------|

Q Q q E E q Q q E E q q q E E q q s s E E E
 
 |--------------|--------------|--------------|------------------|
 |--------------|--------------|--------------|------------------|
 |--------------|--------------|--------------|------------------|
 |----------3-2-|----------3-2-|----------3-2-|-------------3-2--|
 |-------2--1-0-|-2-----2--1-0-|-2--2--2--1-0-|-2--2--2-2---1-0--|
 |-------0------|-0-----0------|-0--0--0------|-0--0--0-0--------|

s s E q s s E E E s s E s s E s s s s E E s s s s s s E s s s s E E
 
 |--------------------|-------------------------|---------------------------|
 |--------------------|-------------------------|---------------------------|
 |--------------------|-------------------------|---------------------------|
 |----------------3-2-|---------------------3-2-|-----------------------3-2-|
 |-2-2---2--2-2---1-0-|-2-2---2-2---2-2-2-2-1-0-|-2-2-2-2-2-2---2-2-2-2-1-0-|
 |-0-0---0--0-0-------|-0-0---0-0---0-0-0-0-----|-0-0-0-0-0-0---0-0-0-0-----|

[0:27] 
S S S S S S S S S S S S E E S S S S S S S S T T T T T T T T E E
 
 |-----------------------------|---------------------------------------|
 |-----------------------------|---------------------------------------|
 |-----------------------------|---------------------------------------|
 |-------------------------3-2-|---------------------------------3-2---|
 |-2-2-2-2-2-2-2-2-2-2-2-2-1-0-|-2-2-2-2-2-2-2-2-----------------1-0---|
 |-0-0-0-0-0-0-0-0-0-0-0-0-----|-0-0-0-0-0-0-0-0-0-0-0-0-0-0-0-0-------|

T T T T T T T T S S S S T T T T T T T T E E
 
 |---------------------------------------------|
 |---------------------------------------------|
 |---------------------------------------------|
 |-----------------------------------------3-2-|
 |-----------------2-2-2-2-----------------1-0-|
 |-0-0-0-0-0-0-0-0-0-0-0-0-0-0-0-0-0-0-0-0-----|

T T T T T T T T T T T T T T T T T T T T T T T T E E [2/4] h
 
 |-----------------------------------------------------|-----|
 |-----------------------------------------------------|-----|
 |-----------------------------------------------------|-----|
 |-------------------------------------------------3-2-|-----|
 |-------------------------------------------------1-0-|--2--|
 |-0-0-0-0-0-0-0-0-0-0-0-0-0-0-0-0-0-0-0-0-0-0-0-0-----|--0--|

[0:38] 
Q=173
[4/4] E E E E E E Q E E E E E E E E E E E E E E E E
 
 |----------------|-----------------|-----------------|
 |----------------|-----------------|-----------------|
 |----------------|-----------------|-----------------|
 |-------------4--|-----------------|-----------------|
 |-2-2-2-2-3-2-2--|-2-------------5-|-4-----4-5-----5-|
 |-0-0-0-0-1-0----|-0-0-0-0-0-0-0-3-|-2-0-0-2-3-0-0-3-|

[E] [E] [E] [E] [E] [E] [E] [E] [E] [E] [E] [E] [E] [E] [E] [E]  
 
 |-----------------|------------------|
 |-----------------|-5-4--------------|
 |-----------------|-----5-3-4-3------|
 |-----------------|-------------5-4--|
 |-2---------------|------------------|
 |-0-0-0-0-0-0-0-0-|------------------|

[E] [E] [E] [E] [E] [E] [E] [E] [E] [E] [E] [E] [E] [E] [E] [E] [E] [E] [E] [E] [E] [E] [E] [E] [E] [E] [E] [E] [E] [E] [E] [E]  
 
 |-----------------|-----------------|-----------------|-----------------|
 |-----------------|-----------------|-----------------|-5-4-------------|
 |-----------------|-----------------|-----------------|-----5-3-4-3-----|
 |---------------4-|-3-----4-5-------|-----------------|-------------5-4-|
 |-2-------------2-|-1-----2-3-----5-|-2---------------|-----------------|
 |-0-0-0-0-0-0-0---|---0-0-----0-0-3-|-0-0-0-0-0-0-0-0-|-----------------|

[E] [E] [E] [E] [E] [E] [E] [E] [E] [E] [E] [E] [E] [E] [E] [E] [E] [E] [E] [E] [E] [E] [E] [E] [E] [E] [E] [E] [E] [E] [E] [E]  
 
 |-----------------|-----------------|-----------------|-----------------|
 |-----------------|-----------------|-----------------|-5-4-------------|
 |-----------------|-----------------|-----------------|-----5-3-4-3-----|
 |-----------------|-------4-5-----4-|-----------------|-------------5-4-|
 |-2-------------5-|-4-----2-3-----2-|-2---------------|-----------------|
 |-0-0-0-0-0-0-0-3-|-2-0-0-----0-0---|-0-0-0-0-0-0-0-0-|-----------------|

[E] [E] [E] [E] [E] [E] [E] [E] [E] [E] [E] [E] [E] [E] [E] [E] [E] [E] [E] [E] [E] [E] [E] [E] [E] [E] [E] [E] [E] [E] [E] [E]  
 
 |-----------------|-----------------|-----------------|-----------------|
 |-----------------|-----------------|-----------------|-5-4-------------|
 |-----------------|-----------------|-----------------|-----5-3-4-3-----|
 |-----------------|-----------------|-----------------|-------------5-4-|
 |-2-------------5-|-4-----4-5-----5-|-2---------------|-----------------|
 |-0-0-0-0-0-0-0-3-|-2-0-0-2-3-0-0-3-|-0-0-0-0-0-0-0-0-|-----------------|

Gtr I
Q E E E E E E Q E E E E E E Q E E E E E E E E E E E E E E
 
 |----------------|----------------|----------------|-----------------|
 |----------------|----------------|----------------|-----------------|
 |----------------|----------------|----------------|-----------------|
 |----------------|----------------|----------------|-----------------|
 |-2------------3-|-2------------3-|-2--------------|---------------3-|
 |-0--0-0-0-0-0-1-|-0--0-0-0-0-0-1-|-0--0-0-0-0-0-0-|-0-0-0-0-0-0-0-1-|

|
| Gtr II
| W W W E E E E E E Q
 
 |----------------|----------------|----------------|-----------------|
 |----------------|----------------|----------------|-5-4-------------|
 |----------------|----------------|----------------|-----5-3-4-3-----|
 |----------------|----------------|----------------|-------------5---|
 |----------------|----------------|----------------|-----------------|
 |----------------|----------------|----------------|-----------------|

Q E E E E E E Q E E E E E E Q E E E E E E E E E E E E E E
 
 |------------------|----------------|----------------|-----------------|
 |------------------|----------------|----------------|-----------------|
 |------------------|----------------|----------------|-----------------|
 |------------------|----------------|----------------|-----------------|
 |--2-------------3-|-2------------3-|-2--------------|---------------3-|
 |--0---0-0-0-0-0-1-|-0--0-0-0-0-0-1-|-0--0-0-0-0-0-0-|-0-0-0-0-0-0-0-1-|

|
| +H. E E W W H E E Q
 
 |------------------|----------------|----------------|-----------------|
 |------------------|----------------|----------------|-------4-3-------|
 |------------------|----------------|----------------|-----------4-----|
 |-(5)------------4-|-5--------------|----------------|-----------------|
 |------------------|----------------|----------------|-----------------|
 |------------------|----------------|----------------|-----------------|

Q E E E E E E Q E E E E E E Q E E E E E E E E E E E E E E
 
 |------------------|----------------|----------------|-----------------|
 |------------------|----------------|----------------|-----------------|
 |------------------|----------------|----------------|-----------------|
 |------------------|----------------|----------------|-----------------|
 |--2-------------3-|-2------------3-|-2--------------|---------------5-|
 |--0---0-0-0-0-0-1-|-0--0-0-0-0-0-1-|-0--0-0-0-0-0-0-|-0-0-0-0-0-0-0-3-|

|
| +H. E E W W E E E E E E Q
 
 |------------------|----------------|----------------|-----------------|
 |------------------|----------------|----------------|-5-4-------------|
 |-(4)------------3-|-4--------------|----------------|-----5-3-4-3-----|
 |------------------|----------------|----------------|-------------5---|
 |------------------|----------------|----------------|-----------------|
 |------------------|----------------|----------------|-----------------|

Q E E E E E E Q E E E E E E Q E E E E E E E E E E E E E E
 
 |------------------|----------------|----------------|-----------------|
 |------------------|----------------|----------------|-----------------|
 |------------------|----------------|----------------|-----------------|
 |------------------|----------------|----------------|-----------------|
 |--2-------------3-|-2------------3-|-2--------------|---------------3-|
 |--0---0-0-0-0-0-1-|-0--0-0-0-0-0-1-|-0--0-0-0-0-0-0-|-0-0-0-0-0-0-0-1-|

|
| +H. E E W W H E E Q
 
 |------------------|----------------|----------------|-----------------|
 |------------------|----------------|----------------|---------4-3-----|
 |------------------|----------------|----------------|-------------4---|
 |-(5)------------4-|-5--------------|----------------|-----------------|
 |------------------|----------------|----------------|-----------------|
 |------------------|----------------|----------------|-----------------|

E S S E S S E S S E E E S S E S S E S S E E
 
 |-----------------------|-----------------------|
 |-----------------------|-----------------------|
 |-----------------------|-----------------------|
 |-----------------------|---------------------5-|
 |-4-------------------5-|-4-------------------3-|
 |-2-2-2-2-2-2-2-2-2-2-3-|-2-2-2-2-2-2-2-2-2-2---|

E S S E S S E S S E E E S S E S S E S S E E
 
 |-----------------------|-----------------------|
 |-----------------------|-----------------------|
 |-----------------------|-----------------------|
 |-4-------------------5-|-4-------------------8-|
 |-2-2-2-2-2-2-2-2-2-2-3-|-2-2-2-2-2-2-2-2-2-2-6-|
 |-----------------------|-----------------------|

E S S E S S E S S E E E S S E S S E S S E E
 
 |-----------------------|------------------------|
 |-----------------------|------------------------|
 |-----------------------|------------------------|
 |-7-------------------8-|-7-------------------12-|
 |-5-5-5-5-5-5-5-5-5-5-6-|-5-5-5-5-5-5-5-5-5-5-10-|
 |-----------------------|------------------------|

S S S S S S S S S S S S S S S S E E E E E E E E
 
 |----------------------------------|------------------|
 |----------------------------------|------------------|
 |----------------------------------|------------------|
 |-11-------------------------------|---------1-0-5-4--|
 |--9-9-9-9-9-9-9-9-9-9-9-9-9-9-9-9-|-----3-2----------|
 |----------------------------------|-3-2--------------|

[1:34] 
Q=205
W +W +W +W
 
 |----------|------------|------------|--------|
 |----------|------------|------------|--------|
 |----------|------------|------------|--------|
 |----------|------------|------------|--------|
 |-2--------|-(2)--------|-(2)--------|-(2)----|
 |-0--------|-(0)--------|-(0)--------|-(0)----|

h h h Q E E h h h Q E E
 
 |-----------|--------------|-----------|--------------|
 |-----------|--------------|-----------|--------------|
 |-----------|--------------|-----------|--------------|
 |-9----7----|-5----7--5-10-|-9----7----|-5----7--5-10-|
 |-7----5----|-3----5--3--8-|-7----5----|-3----5--3--8-|
 |-----------|--------------|-----------|--------------|

Gtr I
h h h Q E E
 
 |---------------------------------|----------------------------------|
 |---------------------------------|----------------------------------|
 |---------------------------------|----------------------------------|
 |-9---------------7---------------|-5---------------7-------5---10---|
 |-7---------------5---------------|-3---------------5-------3----8---|
 |---------------------------------|----------------------------------|

|
| Gtr II
| S S S S S S S S S S S S S S S S S S S S S S S S S S S S S S S S
 
 |---------------------------------|----------------------------------|
 |---------------------------------|----------------------------------|
 |---------------------------------|----------------------------------|
 |-9-9-9-9-9-9-9-9-9-9-9-9-9-9-9-9-|-9-9-9-9-9-9-9-9-9-9-9-9-9-9--9-9-|
 |-7-7-7-7-7-7-7-7-7-7-7-7-7-7-7-7-|-7-7-7-7-7-7-7-7-7-7-7-7-7-7--7-7-|
 |---------------------------------|----------------------------------|

h h h Q E E
 
 |---------------------------------|-------------------------------------|
 |---------------------------------|-------------------------------------|
 |---------------------------------|-------------------------------------|
 |-9---------------7---------------|-5---------------7-------5---10------|
 |-7---------------5---------------|-3---------------5-------3----8------|
 |---------------------------------|-------------------------------------|

|
| S S S S S S S S S S S S S S S S S S S S S S S S S S S S S S S S
 
 |---------------------------------|-------------------------------------|
 |---------------------------------|-------------------------------------|
 |---------------------------------|-------------------------------------|
 |-9-9-9-9-9-9-9-9-9-9-9-9-9-9-9-9-|-9-9-9-9-9-9-9-9-9-9-9-9-9-9--9-9----|
 |-7-7-7-7-7-7-7-7-7-7-7-7-7-7-7-7-|-7-7-7-7-7-7-7-7-7-7-7-7-7-7--7-7----|
 |---------------------------------|-------------------------------------|

[1:48] 
E E S S S S E E S S S S E E E E E E E E
 
 |-----------------------------|--------------------|
 |-----------------------------|--------------------|
 |-----------------------------|-9-8---------11-8---|
 |-----------------------------|-----10-9-10------9-|
 |-----------------------------|--------------------|
 |-0--0--0-0-0-0-0--0--0-0-0-0-|--------------------|

|
| E E S S S S E E S S S S E E E E E E E E
 
 |-----------------------------|--------------------|
 |-----------------------------|--------------------|
 |-----------------------------|--------------------|
 |-----------------------------|-2-1----------4-1---|
 |-----------------------------|------3-2--3------2-|
 |-0--0--0-0-0-0-0--0--0-0-0-0-|--------------------|

E E S S S S E E S S S S E E E E E E E E
 
 |-----------------------------|---------------------|
 |-----------------------------|---------------------|
 |-----------------------------|-9-8---------11-8----|
 |-----------------------------|-----10-9-10------9--|
 |-----------------------------|---------------------|
 |-0--0--0-0-0-0-0--0--0-0-0-0-|---------------------|

|
| E E S S S S E E S S S S E E E E E E E E
 
 |-----------------------------|---------------------|
 |-----------------------------|---------------------|
 |-----------------------------|---------------------|
 |-----------------------------|-2-1----------4-1----|
 |-----------------------------|------3-2--3------2--|
 |-0--0--0-0-0-0-0--0--0-0-0-0-|---------------------|

E E S S S S E E S S S S E E E E E E E E
 
 |-----------------------------|--------------------|
 |-----------------------------|--------------------|
 |-----------------------------|-9-8---------11-8---|
 |-----------------------------|-----10-9-10------9-|
 |-----------------------------|--------------------|
 |-0--0--0-0-0-0-0--0--0-0-0-0-|--------------------|

|
| E E S S S S E E S S S S E E E E E E E E
 
 |-----------------------------|--------------------|
 |-----------------------------|-8-7---------10-7---|
 |-----------------------------|------9-8--9------8-|
 |-12-9----------7--9----------|--------------------|
 |-10-7----------5--7----------|--------------------|
 |-------0-0-0-0-------0-0-0-0-|--------------------|

E E S S S S E E S S S S E E E E E E E E
 
 |-----------------------------|--------------------|
 |-----------------------------|--------------------|
 |-----------------------------|-9-8---------11-8---|
 |-----------------------------|-----10-9-10------9-|
 |-----------------------------|--------------------|
 |-0--0--0-0-0-0-0--0--0-0-0-0-|--------------------|

|
| E E S S S S E E S S S S E E E E E E E E
 
 |-----------------------------|--------------------|
 |-----------------------------|-8-7---------10-7---|
 |-----------------------------|------9-8--9------8-|
 |-12-9----------7--9----------|--------------------|
 |-10-7----------5--7----------|--------------------|
 |-------0-0-0-0-------0-0-0-0-|--------------------|

[1:58] 
 
 PM--| PM--| PM----| PM--|

E S S E E S S E E S S E E S S E Q Q
 
 ||----------------------------|--------------------|
 ||o---------------------------|--------------------|
 ||----------------------------|--------------------|
 ||--4-------------------------|--------------5--4--|
 ||o-----------6---------------|----6---------5--6--|
 ||-----7-7-7-----7-7-7--7-7-7-|-7-----7-7-7--------|
 PM----------------------------------------------|

E E S S S S E E S S S S E E S S S S E E S S S S
 
 |-----------------------------|-----------------------------|
 |-----------------------------|-----------------------------|
 |-----------------------------|-----------------------------|
 |-----------------------------|-----------------------------|
 |-----------------------------|-----------------------------|
 |-0--0--0-0-0-0-0--0--0-0-0-0-|-0--0--0-0-0-0-0--0--0-0-0-0-|
 PM--| PM--| PM----| PM--|

E S S E E S S E E S S E E S S E Q Q
 
 |---------------------------|--------------------|
 |---------------------------|--------------------|
 |---------------------------|--------------------|
 |---------------------4-----|--------------5--4--|
 |-----------6---------------|----6---------5--6--|
 |-7--7-7-7-----7-7-7----7-7-|-7-----7-7-7--------|

1.
 
 PM------------------------------------------------------|

E E S S S S E E S S S S E E S S S S E E S S S S
 
 |-----------------------------|------------------------------||
 |-----------------------------|-----------------------------o||
 |-----------------------------|------------------------------||
 |-----------------------------|------------------------------||
 |-----------------------------|-----------------------------o||
 |-0--0--0-0-0-0-0--0--0-0-0-0-|-0--0--0-0-0-0-0--0--0-0-0-0--||

2.
 
 PM------------------------------|

[E] [E] [E] [E] [E] [E] [E] [E] [E] [E] [E] [E] [E] [E] [E] [E] [E] [E] [E] [E] [E] [E] [E] [E] [E] [E] [E] [E] [E] [E] [E] [E]  
 
 |-----------------|-----------------|-----------------|-----------------|
 |-----------------|-----------------|-----------------|-----------------|
 |-----------------|-----------------|-----------------|-----------------|
 |-----------------|-----------------|-----------------|-2-2-2-2-2-2-2-2-|
 |-----------------|-----------------|-2-2-2-2-2-2-2-2-|-2-2-2-2-2-2-2-2-|
 |-0-0-0-0-0-0-0-0-|-0-0-0-0-0-0-0-0-|-0-0-0-0-0-0-0-0-|-0-0-0-0-0-0-0-0-|

[2:19] Verse
S S S S S S S S S S S S S S S S S S S S S S S S S S S S S S S S
 
 ||------------------------------------------|-----------------------------------------|
 ||o-----------------------------------------|-----------------------------------------|
 ||------------------------------------------|-----------------------------------------|
 ||------------------------------------------|-----------------------------------------|
 ||o-7-7-10-10-9-9-10-10-7-7-10-10-9-9-10-10-|-7-7-10-10-9-9-10-10-7-7-10-10-9-9-10-10-|
 ||------------------------------------------|-----------------------------------------|

S S S S S S S S S S S S S S S S S S S S S S S S S S S S S S S S
 
 |-----------------------------------------|-------------------------------------------|
 |-----------------------------------------|-------------------------------------------|
 |-----------------------------------------|-------------------------------------------|
 |-7-7-10-10-9-9-10-10-7-7-10-10-9-9-10-10-|-7-7-10-10-9-9-10-10-7-7-10-10-9-9-10-10---|
 |-----------------------------------------|-------------------------------------------|
 |-----------------------------------------|-------------------------------------------|

S S S S S S S S S S S S S S S S S S S S S S S S S S S S S S S S
 
 |------------------------------------------|-----------------------------------------|
 |------------------------------------------|-----------------------------------------|
 |------------------------------------------|-----------------------------------------|
 |------------------------------------------|-----------------------------------------|
 |--7-7-10-10-9-9-10-10-7-7-10-10-9-9-10-10-|-7-7-10-10-9-9-10-10-7-7-10-10-9-9-10-10-|
 |------------------------------------------|-----------------------------------------|

1.
S S S S S S S S S S S S S S S S S S S S S S S S S S S S S S S S
 
 |---------------------------------|------------------------------------||
 |---------------------------------|-----------------------------------o||
 |---------------------------------|------------------------------------||
 |---------------------------------|------------------------------------||
 |---------6-6-6-6-5-5-5-5---------|---------6-6-6-6-5-5-5-5-----------o||
 |-8-8-8-8-----------------7-7-7-7-|-8-8-8-8-----------------7-7-7-7----||

2.
S S S S S S S S S S S S S S S S S S S S S S S S S S S S S S S S
 
 |---------------------------------|-----------------------------------|
 |---------------------------------|-----------------------------------|
 |---------------------------------|-----------------------------------|
 |---------------------------------|-----------------5-5-5-5-4-4-4-4---|
 |---------6-6-6-6-5-5-5-5---------|---------6-6-6-6-------------------|
 |-8-8-8-8-----------------7-7-7-7-|-8-8-8-8---------------------------|

[2:37] 
S S S S S S S S S S S S S S S S S S S S S S S S E E E E
 
 ||--------------------------------------|-------------------------|
 ||o-------------------------------------|-------------------------|
 ||--------------------------------------|-------------------------|
 ||----------9-9-9-9---------10-10-10-10-|-5-5-5-5-4-4-4-4-5-7-5-4-|
 ||o-7-7-7-7---------7-7-7-7-------------|-------------------------|
 ||--------------------------------------|-------------------------|

S S S S S S S S S S S S S S S S S S S S S S S S E E Q
 
 |-------------------------------------|-------------------------||
 |-------------------------------------|------------------------o||
 |-------------------------------------|-------------------------||
 |---------9-9-9-9---------10-10-10-10-|-------------------------||
 |-7-7-7-7---------7-7-7-7-------------|-2-2-2-2-2-2-2-2-3-0-2--o||
 |-------------------------------------|-------------------------||

[2:46] 
E E S S E E E S S E S S E S S E Q Q E E S S E E E S S E S S E S S E Q Q
 
 ||------------------------|---------------------|---------------------|--------------------||
 ||o-----------------------|---------------------|---------------------|-------------------o||
 ||------------------------|--------10p9p7-------|---------------------|-------5p4p2--------||
 ||--12-9-------12-9-------|-10p9p7--------5--4--|-4-5-------4-5-------|-5p4p2--------------||
 ||o-10-7-7-7-7-10-7-7-7-7-|---------------3--2--|-2-3-3-3-3-2-3-3-3-3-|-------------5--4--o||
 ||------------------------|---------------------|---------------------|-------------3--2---||

[2:55] 
Gtr I
E E S S E E E S S E E E E E E E E E E E S S E E E S S E E E E E E E E E
 
 ||-----------------------|--------------------|----------------------|----------------------||
 ||o----------------------|-8-7---------10-7---|----------------------|-8-7---------10-7----o||
 ||-----------------------|------9-8--9------8-|----------------------|------9-8--9------8---||
 ||--7-9-------12-9-------|--------------------|-12-9-------7-9-------|----------------------||
 ||o-5-7-7-7-7-10-7-7-7-7-|--------------------|-10-7-7-7-7-5-7-7-7-7-|---------------------o||
 ||-----------------------|--------------------|----------------------|----------------------||

|
| Gtr II
| E E S S E E E S S E E E E E E E E E E E S S E E E S S E E E E E E E E E
 
 ||-----------------------|--------------------|----------------------|----------------------||
 ||o----------------------|--------------------|----------------------|---------------------o||
 ||-----------------------|-9-8---------11-8---|----------------------|-9-8---------11-8-----||
 ||--7-9-------12-9-------|-----10-9-10------9-|-12-9-------7-9-------|-----10-9-10------9---||
 ||o-5-7-7-7-7-10-7-7-7-7-|--------------------|-10-7-7-7-7-5-7-7-7-7-|---------------------o||
 ||-----------------------|--------------------|----------------------|----------------------||

[3:04] 
S S S S S S S S S S S S S S S S
 
 ||----------------------------------|
 ||o---------------------------------|
 ||----------------------------------|
 ||--9-------------------------------|
 ||o-7-7-7-7-7-7-7-7-7-7-7-7-7-7-7-7-|
 ||----------------------------------|

|-3-| |-3-|
E S S E E E Q. E S S E E E Q. Q Q Q Q Q Q
 
 |------------------|------------------|-------------|
 |------------------|------------------|-------------|
 |------------------|------------------|-------------|
 |-2-------2-5-2----|-4-------4-7-4----|-------2-----|
 |-3-3-3-3----------|-5-5-5-5----------|-2-3-5---5-3-|
 |------------------|------------------|-------------|

E S S E E E Q. E S S E E E Q. E Q E E Q E E S S E E E S S E E
 
 |------------------|------------------|---------------|----------------------||
 |------------------|------------------|---------------|---------------------o||
 |------------------|------------------|---------------|----------------------||
 |-1-------1-4-1----|-2-------2-5-2----|-7-7--7-7-7--5-|-4-4-4-4-5-4-4-4-4-7--||
 |-2-2-2-2----------|-3-3-3-3----------|-5-5--5-5-5--3-|-2-2-2-2-3-2-2-2-2-5-o||
 |------------------|------------------|---------------|----------------------|| End of Verse Section

[4:26] 
Q=166 1.2.3.
W E E Q E E Q E E Q E E Q E E Q E E Q E E E E E E Q 4x
 
 |----------||-----------------|-------------10--|-------------10--|------------------||
 |----------||o---8-7----8-10--|---10-8----8-----|---8-10----8-----|----------7-8----o||
 |----------||--9------9-------|-8-------8-------|-7-------7-------|------8-9-----8---||
 |-4--------||-----------------|-----------------|-----------------|-10-9-------------||
 |-2--------||o----------------|-----------------|-----------------|-----------------o||
 |----------||-----------------|-----------------|-----------------|------------------||

4.
 
 |-3-| |-3-| |-3-|

E E E E E E Q E E Q E E Q E E E E E E Q Q E E Q E E Q E E E E S S E S S Q
 
 |------------------|-----7------8--|-8-7-5-------------|-----7------8--|-8-7-5-----------------|
 |----------7-8-10--|---8------8----|-------8-7-5-------|---8------8----|-------7-5-7-8---------|
 |------8-9---------|-9------9------|-------------5--4--|-9------9------|---------------8-5-4---|
 |-10-9-------------|---------------|-------------------|---------------|-----------------------|
 |------------------|---------------|-------------------|---------------|-----------------------|
 |------------------|---------------|-------------------|---------------|-----------------------|

|-3-| |-3-|
E E Q E E Q E E E Q E E Q E E Q E E Q E E E Q Q Q
 
 |-----7------8--|-----------------|-----7------8--|----------------|
 |---8------8----|-5-8-5-----------|---8------8----|-5-8-5----------|
 |-9------9------|-------5----5-4--|-9------9------|-------5-----4--|
 |---------------|----------7------|---------------|----------7-----|
 |---------------|-----------------|---------------|----------------|
 |---------------|-----------------|---------------|----------------|

[5:03] 
Q=131 1.2.3. 4.
E E H. E E H. 4x E E H.
 
 ||--------------|--------------||-----------|
 ||o-------------|-------------o||-----------|
 ||--------------|--------------||-----------|
 ||------4-------|-----4--------||-----9-----|
 ||o---6---------|---6---------o||-----9-----|
 ||--7-----------|-8------------||-7-7-7-----|

[5:17] Clean Guitar
Q=144
[E] [E] [E] [E] [E] [E] [E] [E] [E] [E] [E] [E] [E] [E] [E] [E] [E] [E] [E] [E] [E] [E] [E] [E] [E] [E] [E] [E] [E] [E] [E] [E]  
 
 ||------------------|-----------------|-----------------|-3-----2-----2---|
 ||o-----------------|-4-----3-----3---|-----------------|---0-----0-----0-|
 ||------4-----4-----|---4-----4-----4-|-----3-----3-----|-----0-----0-----|
 ||----5---5-----5---|-----5-----5-----|---5---5-----5---|-----------------|
 ||o-7-------7-----7-|-----------------|-3-------3-----3-|-----------------|
 ||------------------|-----------------|-----------------|-----------------|

[E] [E] [E] [E] [E] [E] [E] [E] [E] [E] [E] [E] [E] [E] [E] [E] [E] [E] [E] [E] [E] [E] [E] [E] [E] [E] [E] [E] [E] [E] [E] [E]  
 
 |-----------------|-----------------|-----------------|-2-----0-----0----||
 |-----------------|-4-----3-----3---|-----------------|---0-----2-----2-o||
 |-----4-----4-----|---4-----4-----4-|-----3-----3-----|-----0-----0------||
 |---5---5-----5---|-----5-----5-----|---5---5-----5---|------------------||
 |-7-------7-----7-|-----------------|-3-------3-----3-|-----------------o||
 |-----------------|-----------------|-----------------|------------------||

[5:44] w/Distortion
H E E S S S S H E E S S S S H E E S S S S E S S S S S S E S S S S S S 4x
 
 ||-------------------|------------------|------------------|---------------------------------||
 ||o------------------|------------------|------------------|--------------------------------o||
 ||--9----------------|-9----------------|-9----------------|---------------------------------||
 ||--9----------------|-9----------------|-9----------------|-4-------------5-----------------||
 ||o-7------7-7-7-7-7-|-6------6-6-6-6-6-|-5------5-5-5-5-5-|-2-2-2-2-2-2-2-3-3-3-3-3-3-3----o||
 ||-------------------|------------------|------------------|---------------------------------||

[6:11] 
Q=156
Gtr I
E. E. Q E S S S S E. E. Q E S S S S
 
 ||---------------------|------------------------|
 ||o--------------------|------------------------|
 ||---------------------|------------------------|
 ||--9--9--9--9---------|-11--11--11--11---------|
 ||o-7--7--7--7-7-7-7-7-|--9---9---9---9-9-9-9-9-|
 ||---------------------|------------------------|

|
| Gtr II
| W W
 
 ||---------------------|------------------------|
 ||o--------------------|------------------------|
 ||---------------------|------------------------|
 ||---------------------|------------------------|
 ||o--------------------|------------------------|
 ||---------------------|------------------------|

1.2.3.
E. E. Q E S S S S E. E. Q E S S S S 4x
 
 |------------------------------------|----------------------||
 |------------------------------------|---------------------o||
 |------------------------------------|----------------------||
 |-12-----12----12-----12-------------|-9--7--7--7-----------||
 |-10-----10----10-----10-10-10-10-10-|-7--5--5--5-5-5-5-5--o||
 |------------------------------------|----------------------||

|
| S E S E S E S E S S E W 4x
 
 |------------------------------------|----------------------||
 |------------------------------------|---------------------o||
 |-------------------7--9--9--7-------|----------------------||
 |---------------7-9-------------9----|----------------------||
 |---------7--9-----------------------|---------------------o||
 |--7--10-----------------------------|----------------------||

4.
E. E. Q E E E W
 
 |-----------------|-------|
 |-----------------|-------|
 |-----------------|-------|
 |-9--7--7--7-9-11-|-12----|
 |-7--5--5--5-7--9-|-10----|
 |-----------------|-------|

Free Time
<
W
 
 |------|
 |------|

|-9----|
 
 |------|

|-7----| Volume swells + additional sound effects in background until [7:54]
|-0----| Use fast flanger setting to mimic oscillating sounds
[7:54] Clean Guitar Harmonics
12/8
Q.=68
Q. Q. Q. Q. 4x
 
 ||--------------------------7(19)----||
 ||o---------------------------------o||
 ||-----------------------------------||
 ||----------4(16)---5(17)------------||
 ||o-7(19)---------------------------o||
 ||-----------------------------------||

Touch string 12 frets above fretted note with index finger and pluck with thumb to produce harmonic
[E] [E] [E] [E] [E] [E] [E] [E] [E] [E] [E] [E]  
 
 ||--7(19)-------------7(19)-------------7(19)-------------7(19)--------------||
 ||o-------8(20)-------------8(20)-------------8(20)-------------8(20)-------o||
 ||--------------9(21)-------------9(21)-------------9(21)-------------9(21)--||
 ||---------------------------------------------------------------------------||
 ||o-------------------------------------------------------------------------o||
 ||---------------------------------------------------------------------------||

[8:16] Clean Guitar
Q. E E E E E E E E E E E E E E E E E E E E E
 
 |-------3-2-0--------------|---------------------------|
 |-^0----------^0-----0-1-3-|-^0-----3-1-0-^0-----0-1-3-|
 |-^0----------^0-0---------|-^0-0---------^0-0---------|
 |-^2----------^2---2-------|-^2---2-------^2---2-------|
 |-^2----------^2-----------|-^2-----------^2-----------|
 |-^0-----------------------|---------------------------|

[E] [E] [E] [E] [E] [E] [E] [E] [E] [E] [E] [E] [E] [E] [E] [E] [E] [E] [E] [E] [E] [E] [E] [E]  
 
 |--------3-2-0--------------|---------------------3-2-0----|
 |-^0-----------^0-----0-1-3-|-^0-----3-1-0-^0--------------|
 |-^0-0---------^0-0---------|-^0-0---------^0-0------------|
 |-^2---2-------^2---2-------|-^2---2-------^2---2----------|
 |-^2-----------^2-----------|-^2-----------^2--------------|
 |---------------------------|------------------------------|

W. S S S S W Q H E E H.
 
 |----------------|---------------------|------------------|
 |-^0-------------|---------0-----------|--------0---------|
 |-^0-------------|-------0-------------|-2--------2-------|
 |-^2-------------|-----5---------------|-4----------------|
 |-^2-------------|---7-----------------|-5----------------|
 |-^0-------------|-8-------------------|------------------|

[E] [E] [E] [E] [E] [E] [E] [E] [E] [E] [E] [E]  
 
 |-0-----[12]-----------------------------|
 |---0--------[12]------0-----[5]---------|
 |-----0-----------[12]---0-------[5]-----|
 |--------------------------2---------[5]-|
 |----------------------------------------|
 |----------------------------------------|

Harmonics played by other guitar
[9:03] While other guitar repeats previous section
Q.=81
S S S S S S S S S S S S S S S S S S S S S S S S
 
 |-7-7-7-7-7-7-7-7-7-7-7-7-7-7-7-7-7-7-7-7-7-7-7-7-|
 |-8-8-8-8-8-8-8-8-8-8-8-8-8-8-8-8-8-8-8-8-8-8-8-8-|
 |-------------------------------------------------|
 |-------------------------------------------------|
 |-------------------------------------------------|
 |-------------------------------------------------|

S S S S S S S S S S S S S S S S S S S S S S S S
 
 |-12-12-12-12-12-12-12-12-12-12-12-12-12-12-12-12-12-12-12-12-12-12-12-12--|
 |-13-13-13-13-13-13-13-13-13-13-13-13-13-13-13-13-13-13-13-13-13-13-13-13--|
 |--------------------------------------------------------------------------|
 |--------------------------------------------------------------------------|
 |--------------------------------------------------------------------------|
 |--------------------------------------------------------------------------|

S S S S S S S S S S S S S S S S S S S S S S S S
 
 |-10-10-10-10-10-10-10-10-10-10-10-10-10-10-10-10-10-10-5-5-5-5-5-5-|
 |-12-12-12-12-12-12-12-12-12-12-12-12-12-12-12-12-12-12-7-7-7-7-7-7-|
 |-------------------------------------------------------------------|
 |-------------------------------------------------------------------|
 |-------------------------------------------------------------------|
 |-------------------------------------------------------------------|

S S S S S S S S S S S S S S S S S S S S S S S S
 
 |-7-7-7-7-7-7-7-7-7-7-7-7-7-7-7-7-7-7-7-7-7-7-7-7--|
 |-8-8-8-8-8-8-8-8-8-8-8-8-8-8-8-8-8-8-8-8-8-8-8-8--|
 |--------------------------------------------------|
 |--------------------------------------------------|
 |--------------------------------------------------|
 |--------------------------------------------------|

S S S S S S S S S S S S S S S S S S S S S S S S
 
 |-10-10-10-10-10-10-10-10-10-10-10-10-10-10-10-10-10-10-10-10-10-10-10-10-|
 |-12-12-12-12-12-12-12-12-12-12-12-12-12-12-12-12-12-12-12-12-12-12-12-12-|
 |-------------------------------------------------------------------------|
 |-------------------------------------------------------------------------|
 |-------------------------------------------------------------------------|
 |-------------------------------------------------------------------------|

S S S S S S S S S S S S S S S S S S S S S S S S
 
 |-14-14-14-14-14-14-14-14-14-14-14-14-14-14-14-14-14-14-14-14-14-14-14-14--|
 |-15-15-15-15-15-15-15-15-15-15-15-15-15-15-15-15-15-15-15-15-15-15-15-15--|
 |--------------------------------------------------------------------------|
 |--------------------------------------------------------------------------|
 |--------------------------------------------------------------------------|
 |--------------------------------------------------------------------------|

S S S S S S S S S S S S S S S S S S S S S S S S
 
 |-12-12-12-12-12-12-12-12-12-12-12-12-12-12-12-12-12-12-5-5-5-5-5-5-|
 |-14-14-14-14-14-14-14-14-14-14-14-14-14-14-14-14-14-14-7-7-7-7-7-7-|
 |-------------------------------------------------------------------|
 |-------------------------------------------------------------------|
 |-------------------------------------------------------------------|
 |-------------------------------------------------------------------|

S S S S S S S S S S S S S S S S S S S S S S S S
 
 |-7-7-7-7-7-7-7-7-7-7-7-7-7-7-7-7-7-7-7-7-7-7-7-7--|
 |-8-8-8-8-8-8-8-8-8-8-8-8-8-8-8-8-8-8-8-8-8-8-8-8--|
 |--------------------------------------------------|
 |--------------------------------------------------|
 |--------------------------------------------------|
 |--------------------------------------------------|

S S S S S S S S S S S S S S S S S S S S S S S S
 
 |-15-15-15-15-15-15-15-15-15-15-15-15-14-14-14-14-14-14-15-15-15-15-15-15-|
 |-17-17-17-17-17-17-17-17-17-17-17-17-15-15-15-15-15-15-17-17-17-17-17-17-|
 |-------------------------------------------------------------------------|
 |-------------------------------------------------------------------------|
 |-------------------------------------------------------------------------|
 |-------------------------------------------------------------------------|

S S S S S S S S S S S S S S S S S S S S S S S S
 
 |-12-12-12-12-12-12-12-12-12-12-12-12-12-12-12-12-12-12-12-12-12-12-12-12--|
 |-13-13-13-13-13-13-13-13-13-13-13-13-13-13-13-13-13-13-13-13-13-13-13-13--|
 |--------------------------------------------------------------------------|
 |--------------------------------------------------------------------------|
 |--------------------------------------------------------------------------|
 |--------------------------------------------------------------------------|

S S S S S S S S S S S S S S S S S S S S S S S S
 
 |-14-14-14-14-14-14-14-14-14-14-14-14-12-12-12-12-12-12-5-5-5-5-5-5-|
 |-15-15-15-15-15-15-15-15-15-15-15-15-14-14-14-14-14-14-7-7-7-7-7-7-|
 |-------------------------------------------------------------------|
 |-------------------------------------------------------------------|
 |-------------------------------------------------------------------|
 |-------------------------------------------------------------------|

S S S S S S S S S S S S S S S S S S S S S S S S
 
 |-7-7-7-7-7-7-7-7-7-7-7-7-7-7-7-7-7-7-7-7-7-7-7-7--|
 |-8-8-8-8-8-8-8-8-8-8-8-8-8-8-8-8-8-8-8-8-8-8-8-8--|
 |--------------------------------------------------|
 |--------------------------------------------------|
 |--------------------------------------------------|
 |--------------------------------------------------|

S S S S S S S S S S S S S S S S S S S S S S S S
 
 |-15-15-15-15-15-15-15-15-15-15-15-15-14-14-14-14-14-14-15-15-15-15-15-15-|
 |-17-17-17-17-17-17-17-17-17-17-17-17-15-15-15-15-15-15-17-17-17-17-17-17-|
 |-------------------------------------------------------------------------|
 |-------------------------------------------------------------------------|
 |-------------------------------------------------------------------------|
 |-------------------------------------------------------------------------|

S S S S S S S S S S S S S S S S S S S S S S S S
 
 |-14-14-14-14-14-14-14-14-14-14-14-14-14-14-14-14-14-14-14-14-14-14-14-14--|
 |-15-15-15-15-15-15-15-15-15-15-15-15-15-15-15-15-15-15-15-15-15-15-15-15--|
 |--------------------------------------------------------------------------|
 |--------------------------------------------------------------------------|
 |--------------------------------------------------------------------------|
 |--------------------------------------------------------------------------|

S S S S S S S S S S S S S S S S S S S S S S S S
 
 |-17-17-17-17-17-17-17-17-17-17-17-17-15-15-15-15-15-15-14-14-14-14-14-14-|
 |-19-19-19-19-19-19-19-19-19-19-19-19-17-17-17-17-17-17-15-15-15-15-15-15-|
 |-------------------------------------------------------------------------|
 |-------------------------------------------------------------------------|
 |-------------------------------------------------------------------------|
 |-------------------------------------------------------------------------|

S S S S S S S S S S S S S S S S S S S S S S S S
 
 |-15-15-15-15-15-15-15-15-15-15-15-15-15-15-15-15-15-15-15-15-15-15-15-15--|
 |-17-17-17-17-17-17-17-17-17-17-17-17-17-17-17-17-17-17-17-17-17-17-17-17--|
 |--------------------------------------------------------------------------|
 |--------------------------------------------------------------------------|
 |--------------------------------------------------------------------------|
 |--------------------------------------------------------------------------|

W.
 
 |-------|
 |-------|
 |-------|
 |-7-----|
 |-5-----|
 |-------|

[9:53] w/Distortion
[4/4] Q=161
E S S E S S E S S E S S E S S E S S E S S E S S
 
 ||------------------------------|-----------------------------|
 ||o-----------------------------|-----------------------------|
 ||------------------------------|-----------------------------|
 ||--9--9-9-9--9-9-9--9-9-9--9-9-|-5--5-5-5--5-5-5--5-5-5--5-5-|
 ||o-7--7-7-7--7-7-7--7-7-7--7-7-|-3--3-3-3--3-3-3--3-3-3--3-3-|
 ||------------------------------|-----------------------------|

E S S E S S E S S E S S E S S E S S E S S E S S
 
 |-----------------------------|------------------------------------------||
 |-----------------------------|-----------------------------------------o||
 |-----------------------------|------------------------------------------||
 |-4--4-4-4--4-4-4--4-4-4--4-4-|--9---9--9--9---9--9-10--10-10-12--12-12--||
 |-5--5-5-5--5-5-5--5-5-5--5-5-|-10--10-10-10--10-10-12--12-12-14--14-14-o||
 |-----------------------------|------------------------------------------||

E S S E S S E S S E S S E S E S S E S S E S S
 
 ||------------------------------|------------------------------|
 ||o-8---------------------------|-5----------------------------|
 ||--9---------------------------|-5----------------------------|
 ||--9---------------------------|-5----------------------------|
 ||o-7--7-7-7--7-7-7--7-7-7--7-7-|-3--3-3-3--3-3-3--3-3-3--3-3--|
 ||------------------------------|------------------------------|

E S S E S S E S S E S S E E E E E E E E
 
 |-----------------------------|-----7-------7----||
 |-7---------------------------|---8---8---7---7-o||
 |-7---------------------------|---------7--------||
 |-7---------------------------|------------------||
 |-5--5-5-5--5-5-5--5-5-5--5-5-|-----------------o||
 |-----------------------------|------------------||

[10:43] 
Q=205
S S S S S S S S S S S S S S S S S S S S S S S S S S S S S S S S
 
 |---------------------------------|-----------------------------------|
 |---------------------------------|-----------------------------------|
 |-9-------------------------------|-9---------------------------------|
 |-9-------------------------------|-9---------------------------------|
 |-7-7-7-7-7-7-7-7-7-7-7-7-7-7-7-7-|-7-7-7-7-7-7-7-7-7-7-7-7-7-7-7-7---|
 |---------------------------------|-----------------------------------|

S S S S S S S S S S S S S S S S S S S E. E S S S E. E
 
 |---------------------------------|-----------------------------|
 |---------------------------------|-----------------------------|
 |-9-------------------------------|-----------------------------|
 |-9-------------------------------|-12-11-11-11--11-------------|
 |-7-7-7-7-7-7-7-7-7-7-7-7-7-7-7-7-|-10--9--9--9---9-------5--3--|
 |---------------------------------|-----------------2-3-5-------|

[10:48] 
S S S S S S S S S S S S S S S S S S S S S S S S S S S S S S S S
 
 ||----------------------------------|----------------------------------|
 ||o---------------------------------|----------------------------------|
 ||----------------------------------|----------------------------------|
 ||--4-------------------------------|-4---------------5p3p2p0-4p3p2p0--|
 ||o-2-2-2-2-2-2-2-2-2-2-2-2-2h3p2p0-|-2-2-2-2-2-2-2-2------------------|
 ||----------------------------------|----------------------------------|

S S S S S S S S S S S S S S S S S S S S S S S S S S S S S S S S
 
 |---------------------------------|----------------------------------||
 |---------------------------------|---------------------------------o||
 |---------------------------------|-----------------5p4p2p0-4p3p2p0--||
 |-4-------------------------------|-4--------------------------------||
 |-2-2-2-2-2-2-2-2-2-2-2-2-2h3p2p0-|-2-2-2-2-2-2-2-2-----------------o||
 |---------------------------------|----------------------------------||

[12:01] 
S S S S S S S S S S S S S S S S S S S S S S S S S S S S S S S S
 
 ||----------------------------------|---------------------------------|
 ||o---------------------------------|---------------------------------|
 ||----------------------------------|---------------------------------|
 ||--9-----------------------------7-|-5-----------------------------7-|
 ||o-7-7-7-7-7-7-7-7-7-7-7-7-7-7-7-5-|-3-3-3-3-3-3-3-3-3-3-3-3-3-3-3-5-|
 ||----------------------------------|---------------------------------|

S S S S S S S S S S S S S S S S S S S S S S S S E. E. E
 
 |---------------------------------|--------------------------||
 |---------------------------------|-------------------------o||
 |---------------------------------|--------------------------||
 |-4-------------------------------|--------------------------||
 |-2-2-2-2-2-2-2-2-2-2-2-2-2-2-2-2-|-2-2-2-2-2-2-2-2-2--3--5-o||
 |---------------------------------|--------------------------||

Lead guitar plays this while rhythm guitar continues previous riff
E S S S S E S S S S E S S E S S S S E S S S S E S S
 
 |---------------------------|--------------------------------------------|
 |---------------------------|-10--------------10-------------10----------|<br /

Important: The song above is NOT stored on the Chordie server. The original song is hosted at www.azchords.com. Chordie works as a search engine and provides on-the-fly formatting. Chordie does not index songs against artists'/composers' will. To remove this song please click here.

Text color:
Chord color:
Chord grids: 
Font size:    
Page size: 

E
Rate #1 of 1 versions

Login - add to songbook

SHARE PAGE  



You need to log in to post comments