Guitar Tabs, Chords and Lyrics
Server problems seems to be fixed. Chordie has been experiencing problems with songs disappearing. These issues now seems to be fixed, but still verifying the fix. If you find anything strange, please email admin@chordie.com.


Aimer le mal  Vulgaires Machins

Standard tuning
This song is pretty easy, a bit too easy..
but i stil wanted to put it up as a tab for those who can't figure out. :p
Guitar 1:
CHORDS: Em C G B7 :|
Em: |022000|
C : |x32010|
G : |320003|
B7: |x21202|
PICKING PATTERN: p m i m
I dont use a pick for this song...
I use the thumb (p) middle (m) and index (i) fingers
Each chord picking pattern repeats 4 times
I just put it up twice to make it easy to read
[Em] [C] [G] [B7]  
 
 |--------------------------------------------------------|
 |--0-0--0-0---1-1--1-1---0-0--0-0---0-0--0-0---m-m-------|
 |---0----0-----0----0-----0----0-----2----2-----i---etc..|
 |-2----2-----2----2-----0----0-----1----1-----p----------|
 |--------------------------------------------------------|
 |--------------------------------------------------------|

Guitar 2:
Intro:
[Em] [C] [G] [B7]  
 
 |----------------------------------9~--------------------|
 |-----------------------8~-------------------------------|
 |--------------------------------------------------------|
 |--------------------------------------------------------|
 |--7~----------------------------------------------------|
 |--------------------------------------------------------|

Verse:
Dans ma société d??hypocrites ...
...Le silence est la clef de l??Amérique
[Em] [C] [G] [B7]  
 
 |--------------------------------------------------------|
 |--------------------------------------------------------|
 |--------------------------------------------------------|
 |--------------------------------------------------------|
 |-----------3~---------------------2~--------------------|
 |-----------------------3~--------------2~---------------|

[Em] [C] [G] [B7]  
 
 |--------------------------------------------------------|
 |--------------------------------------------------------|
 |--------------------------------------------------------|
 |---------------------------------------1~---------------|
 |-----------3~---------------------2~--------------------|
 |--0~-------------------3~-------------------------------|

[Em] [C] [G] [B7]  
 
 |--------------------------------------------------------|
 |--------------------------------------------------------|
 |--------------------------------------------------------|
 |--2~-----0----------------------------------------------|
 |------------3~--------------------2~--------------------|
 |-----------------------3~-------------------------------|

T??as vu les p??tits s??en venir ...
...La souffleuse pis les dîners congelés
congelé comme ton coeur ...
...matérialisé
Interlude thingy:
Guitar 1:
[Em] [C] [G] [B7]  
 
 |--0-0-0-0-0-0-0-0-0-0-0-0-0-0-0-0-3-3-3-3-3-3-3-3-2-2-2-2-2-2-2-2--|
 |-5-5-5-5-5-5-5-5-5-5-5-5-5-5-5-5-3-3-3-3-3-3-3-3-4-4-4-4-4-4-4-4---|
 |-------------------------------------------------------------------|
 |-------------------------------------------------------------------|
 |-------------------------------------------------------------------|
 |-------------------------------------------------------------------|

Guitar 2:
[Em] [C] [G] [B7]  
 
 |--------------------------------------------------------|
 |--------------------------------------------------------|
 |--------------------------------------------------------|
 |--------------------------------------------------------|
 |------------3~--------------------2~--------------------|
 |--0~-------------------3~-------------------------------|

[Em] [C] [G] [B7]  
 
 |--------------------------------------------------------|
 |--------------------------------------------------------|
 |--------------------------------------------------------|
 |--------------------------------------------------------|
 |------------3~--------------------2~--------------------|
 |--0~-------------------3~-------------------------------|

Verse:
[Em] [C] [G] [B7]  
 
 |--------------------------------------------------------|
 |--------------------------------------------------------|
 |--------------------------------------------------------|
 |--2~----------------------------------------------------|
 |------------3~--------------------2~--------------------|
 |-----------------------3~-------------------------------|

[Em] [C] [G] [B7]  
 
 |----------------------------------7~--------------------|
 |-----------------------8~-------8-----------------------|
 |--------------------------------------------------------|
 |--2~----------------------------------------------------|
 |--------------------------------------------------------|
 |--------------------------------------------------------|

Je repense mes années...
...On a jamais choisi, on a marché
Interlude thingy again:
Guitar 1:
[Em] [C] [G] [B7]  
 
 |--0-0-0-0-0-0-0-0-0-0-0-0-0-0-0-0-3-3-3-3-3-3-3-3-2-2-2-2-2-2-2-2--|
 |-5-5-5-5-5-5-5-5-5-5-5-5-5-5-5-5-3-3-3-3-3-3-3-3-4-4-4-4-4-4-4-4---|
 |-------------------------------------------------------------------|
 |-------------------------------------------------------------------|
 |-------------------------------------------------------------------|
 |-------------------------------------------------------------------|

(Piano)
Guitar 2 with distortion:
[Em] [C] [G] [B7] [Em]  
 
 |-0-0-0-0-0-0-0-0-0-0-0-0-0-0-0-0-3-3-3-3-3-3-3-3-2-2-2-2-2-2-2-2--0-|
 |-5-5-5-5-5-5-5-5-5-5-5-5-5-5-5-5-3-3-3-3-3-3-3-3-4-4-4-4-4-4-4-4--0-|
 |------------------------------------------------------------------0-|
 |--------------------------------------------------------------------|
 |--------------------------------------------------------------------|
 |--------------------------------------------------------------------|

J??ai le goût qu??on aille dans le trafic ...
...En est déj son dernier chapitre
On est tous quelque part, le produit bon marché d??un riche
L??outil parfait du rêve économique
A.
Guitar 2 with distortion:
[Em] [C] [G] [B7]  
 
 |---------------|
 |---------------|
 |-----5-------4-|
 |-2---5---5---4-|
 |-2---3---5---2-|
 |-0-------3-----|

End with Em
 
 -------------------------------------------------

Yay finally finished... I got too lazy
Paul G

Important: The song above is NOT stored on the Chordie server. The original song is hosted at www.azchords.com. Chordie works as a search engine and provides on-the-fly formatting. Chordie does not index songs against artists'/composers' will. To remove this song please click here.

Text color:
Chord color:
Chord grids: 
Font size:    
Page size: 

B7 C Em G
Rate #1 of 1 versions

Jango Player

Login - add to songbook

SHARE PAGE  




You need to log in to post comments