Guitar Tabs, Chords and Lyrics
Update 25:10. 13:00. Site is back up running again. Songbooks are recovered. Woring on getting search back up..


Un Vote de moins  Vulgaires Machins

Standard Tuning
INTRO:
C G#G F G G#G F G A B C 2x E C
 
 |---|----------------------------|-----|
 |---|----------------------------|-----|
 |-5-|*----------------------4-5-*|-9-5-|
 |-5-|*-6-5--3--5-6-5-3-5--7-4-5-*|-9-5-|
 |-3-|--6-5--3--5-6-5-3-5--7-2-3--|-7-3-|
 |---|--4-3--1--3-4-3-1-3--5------|-0---|

VERSE:
[C] [A] [F] [C] [C] [G] [F] [G]  
 
 |------------|------------|
 |------------|------------|
 |-5----------|-5----------|
 |-5--7--3--5-|-5--5--3--5-|
 |-3--7--3--5-|-3--5--3--5-|
 |----5--1--3-|----3--1--3-|

Le directeur général des élections...
...J??fais confiance aux politiciens
CHORUS I: First Guitar plays just the C chord
While second guitar plays the first part of verse
C A F C D C G F C F C G F G 2x
 
 |---------------------------------|--------------|
 |---------------------------------|--------------|
 |-5-------------7--5--------5--10-|*-5----------*|
 |-5-(-7--3--5-)-7--5--5--3--x--x--|*-5--5--3--5-*|
 |-3-(-7--3--5-)-5--3--5--3--3--8--|--3--5--3--5--|
 |---(-5--1--3-)-------3--1--------|-----3--1--3--|

Un vote de moins un vote de moins...
...Pour ce beau pays de crétins?
Solo on last repeat of chorus
 
 |----------------------------|
 |----------6--------------8--|
 |-9----7-----5-------4-5-----|
 |--10----9-----7-------------|
 |----------------------------|
 |----------------------------|

Verse again
Décalissez-la ma planète...
...De parasites perdants et morons?
CHORUS II:
C A F C D C G F 1.C 2.C F C
 
 |--------------------------|----|----------|
 |--------------------------|----|----------|
 |-5-------------7--5-------|---*|-5--10--5-|
 |-5-(-7--3--5-)-7--5--5--3-|-5-*|-x--x---5-|
 |-3-(-7--3--5-)-5--3--5--3-|-5--|-3--8---3-|
 |---(-5--1--3-)-------3--1-|-3--|-.--.-----|

un vote de moins un vote de moins...
...puisque maintenant, un rot en fait pas ben moins.
And then the ending:
[C] [D#D]  
 
 |--------|
 |--------|

|-5--8-7-|
|-5--8-7-|
|-3--6-5-|
 
 |--------|

Ending chords:
[F] [G] [G#G] [F] [G] [A] [B] [C]  
 
 |---------------------|
 |---------------------|
 |-----------------4-5-|
 |-3--5-6-5-3-5--7-4-5-|
 |-3--5-6-5-3-5--7-2-3-|
 |-1--3-4-3-1-3--5-----|
 -------------------------------------------------

Might as well tab out all the song from 'Aimer le Mal' by VM
This is the 4th one i've tabbed from the album
ciao
Paul G

Important: The song above is NOT stored on the Chordie server. The original song is hosted at www.azchords.com. Chordie works as a search engine and provides on-the-fly formatting. Chordie does not index songs against artists'/composers' will. To remove this song please click here.

Text color:
Chord color:
Chord grids: 
Font size:    
Page size: 

A B C F G
Rate #1 of 1 versions

Login - add to songbook

SHARE PAGE  




You need to log in to post comments