Guitar Tabs, Chords and Lyrics
Major upgrade!! After one year development the new version of Chordie is now online! Please give feedback.


Old Enough to Know Better  Wade Hayes

Old Enough to Know Better (Wade Hayes)
Lead Solo
********************************************************
b = bend, p = pulloff, \ = slide down,
/ = slide up, h = hammer on
********************************************************
*Note there is alot of fairly fast double stops, pulloffs
& hammer ons in this solo, so limber up those fingers
first...and have fun. This solo really screams!
pedal steel
solo ends... Start Guitar Solo
[B]  
 
 E-------|-----------7---------------------------|---------
 B-------|-----------7----10--9----6---7---------|------5--
 G-------|----------------10--9----7---8--------7|\6----6--
 D-------|----------------------------------9---8|\7-------
 A-------|---------------------------------------|---------
 E-------|---------------------------------------|---------

[E]  
 
 E---------------------------|-----------------------------
 B-4---------4---------4-----|----5---4-----3p0------------
 G-4---------4---------4-----|-------------------3--2--0h1-
 D-----7p4-------7p4--------5|h6---------5-----------------
 A---------------------------|-----------------------------
 E---------------------------|-----------------------------

B (1/4 note bends)
 
 E----------------------------|-----------------------------
 B----------------------------|-----------------------------
 G----------------------------|-----------------------------
 D--2p0---------------------2-|----------------------7h9----
 A-------2--1--0--------------|--5b--2--5b--2--2/9----------
 E-----------------3b--0/4----|-----------------------------

(1/4 note bends) F# B
 
 E|-------------------------------|-------------------------
 B|--------------7----------------|----7\6----------7-------
 G|--7b----------7b---------7b----|--------------9-----7b---
 D|------9--9--------9--9--------9|\8---------7-----------9-
 A|-------------------------------|-------------------------
 E|-------------------------------|-------------------------


Important: The song above is NOT stored on the Chordie server. The original song is hosted at www.azchords.com. Chordie works as a search engine and provides on-the-fly formatting. Chordie does not index songs against artists'/composers' will. To remove this song please click here.

Text color:
Chord color:
Chord grids: 
Font size:    
Page size: 

B E
Rate #1 of 5 versions

Login - add to songbook

SHARE PAGE  




You need to log in to post comments