Guitar Tabs, Chords and Lyrics
Server problems seems to be fixed. Chordie has been experiencing problems with songs disappearing. These issues now seems to be fixed, but still verifying the fix. If you find anything strange, please email admin@chordie.com.


Wake Up  The Walkmen

The Walkmen
Wake Up (4:13)
Everyone Who Pretended to Like Me Is Gone
[E] [G#] [C#m] [E]  
[E] [G#] [C#m] [E]  
Out the [G#]station through my radio[C#m]
nothings [E]on
it's like a joke thats [G#]told with out its final [C#m]line
where's it [E]going
we had it wrong[E] [-] [Fm]
[C#m]I know
[A] [F#] I'm trying
[A] [F#] I'm trying to
[E] 
 
 e|-----------------------------------------2---------------------------------|
 B|---------------------------------------------------------------------------|
 G|-9/\/\/\-9/\/\/\-9/\/\/\-9p8-8p6-6p4-4p3-----------------------------------|
 D|---------------------------------------------------------------------------|
 A|---------------------------------------------------------------------------|
 E|---------------------------------------------------------------------------|

[Bass Movement E - C#m - A - F#] 
wake up
[E] 
 
 e|-----------------------------------------2---------------------------------|
 B|---------------------------------------------------------------------------|
 G|-9/\/\/\-9/\/\/\-9/\/\/\-9p8-8p6-6p4-4p3-----------------------------------|
 D|---------------------------------------------------------------------------|
 A|---------------------------------------------------------------------------|
 E|---------------------------------------------------------------------------|

[Bass Movement E - C#m - A - F#] 
wake up
and I [G#]tell by you way too far[C#m]
looking [E]back I had a casing [G#]sentimental songs and [C#m]shame
would they [E]ever spin around[E] [-] [Fm]
[C#m]foward
[A] [-] [F#] they're trying
[A] [-] [F#] they're trying
[A] [-] [F#] and so they do
[Bass Movement C#m - E - A - F#] 
[A] [-] [F#] hear the call of a new world
[A] [-] [F#] as I climb to the next floor
[C#m] [E]haven't [A]we [F#]met be[C#m]fore
[E]under [A]brighter [F#]skies ab[E]ove[G#] [C#m] [E]
ab[G#]ove [C#m] [E]
[Bass Movement C#m - E - A - F#] x2
[C#m] any[E]way its [A]fine
we're [F#]walking through wind
[C#m] unfa[E]miliar [A]scenes
we're [F#]choking on it
[C#m] and we're [E]shaking [A]hands
with [F#]someone we don't
[E] 
 
 e|-----------------------------------------2---------------------------------|
 B|---------------------------------------------------------------------------|
 G|-9/\/\/\-9/\/\/\-9/\/\/\-9p8-8p6-6p4-4p3-----------------------------------|
 D|---------------------------------------------------------------------------|
 A|---------------------------------------------------------------------------|
 E|---------------------------------------------------------------------------|

[Bass Movement E - C#m - A - F#] 
know now
[E] 
 
 e|-----------------------------------------2---------------------------------|
 B|---------------------------------------------------------------------------|
 G|-9/\/\/\-9/\/\/\-9/\/\/\-9p8-8p6-6p4-4p3-----------------------------------|
 D|---------------------------------------------------------------------------|
 A|---------------------------------------------------------------------------|
 E|---------------------------------------------------------------------------|

[Bass Movement E - C#m - A - F#] 
wake up
[E] 
 
 e|-----------------------------------------2---------------------------------|
 B|---------------------------------------------------------------------------|
 G|-9/\/\/\-9/\/\/\-9/\/\/\-9p8-8p6-6p4-4p3-----------------------------------|
 D|---------------------------------------------------------------------------|
 A|---------------------------------------------------------------------------|
 E|---------------------------------------------------------------------------|

[Bass Movement E - C#m - A - F#] 
wake up
[E] 
 
 e|-----------------------------------------2---------------------------------|
 B|---------------------------------------------------------------------------|
 G|-9/\/\/\-9/\/\/\-9/\/\/\-9p8-8p6-6p4-4p3-----------------------------------|
 D|---------------------------------------------------------------------------|
 A|---------------------------------------------------------------------------|
 E|---------------------------------------------------------------------------|

[Bass Movement E - C#m - A - F#] 

Important: The song above is NOT stored on the Chordie server. The original song is hosted at www.azchords.com. Chordie works as a search engine and provides on-the-fly formatting. Chordie does not index songs against artists'/composers' will. To remove this song please click here.

Text color:
Chord color:
Chord grids: 
Font size:    
Page size: 

A C#m E F# Fm G#
Rate #1 of 3 versions

Jango Player

Login - add to songbook

SHARE PAGE  



You need to log in to post comments