Guitar Tabs, Chords and Lyrics
Server problems seems to be fixed. Chordie has been experiencing problems with songs disappearing. These issues now seems to be fixed, but still verifying the fix. If you find anything strange, please email admin@chordie.com.


Classic Love  We Are Scientists

[Intro/ Verse] 
 
 e|---------------------------------------------------------------------------|
 B|-----------------------------------------12-12-12--------------------------|
 G|---12-12-12-12---9-9-9-9---11-11-11-11-------------------------------------|
 D|-----------------------------------------9--9--9---------------------------|
 A|---10-10-10-10---7-7-7-7---9--9--9--9--------------------------------------|
 E|---------------------------------------------------------------------------|

[Cborus] 
 
 e|----------------------------------------------------|
 B|-13-13-13--12-12-12--10-10-10-10-10-10-10-10-10-10--|
 G|----------------------------------------------------|
 D|-10-10-10--9--9--9---7--7--7--7--7--7--7--7--7--7---|
 A|----------------------------------------------------|
 E|----------------------------------------------------|
 e|----------------------------------------------------|----------------------------------------------------|
 B|-13-13-13--12-12-12--10-10-10-10-10-10-10-10-10-10--|---12-12-12-12-12-12-12-12--11-11-11-11-11-11-11-11-|
 G|----------------------------------------------------|----------------------------------------------------|
 D|-10-10-10--9--9--9---7--7--7--7--7--7--7--7--7--7---|---10-10-10-10-10-10-10-10--9--9--9--9--9--9--9--9--|
 A|----------------------------------------------------|----------------------------------------------------|
 E|----------------------------------------------------|----------------------------------------------------|
 e|----------------------------------------------------|
 B|-13-13-13--12-12-12--10-10-10-10-10-10-10-10-10-10--|
 G|----------------------------------------------------|
 D|-10-10-10--9--9--9---7--7--7--7--7--7--7--7--7--7---|
 A|----------------------------------------------------|
 E|----------------------------------------------------|
 e|----------------------------------------------------|-----------------------|
 B|-13-13-13--12-12-12--10-10-10-10-10-10-10-10-10-----|------10b-10b-10b-10b--|
 G|----------------------------------------------------|-----------------------|
 D|-10-10-10--9--9--9---7--7--7--7--7--7--7--7--7------|-----------------------|
 A|----------------------------------------------------|-----------------------|
 E|----------------------------------------------------|-----------------------|

[Verse] 
 
 e|---------------------------------------------------------------------------|
 B|-----------------------------------------12-12-12--------------------------|
 G|---12-12-12-12---9-9-9-9---11-11-11-11-------------------------------------|
 D|-----------------------------------------9--9--9---------------------------|
 A|---10-10-10-10---7-7-7-7---9--9--9--9--------------------------------------|
 E|---------------------------------------------------------------------------|

[Cborus] 
 
 e|----------------------------------------------------|
 B|-13-13-13--12-12-12--10-10-10-10-10-10-10-10-10-10--|
 G|----------------------------------------------------|
 D|-10-10-10--9--9--9---7--7--7--7--7--7--7--7--7--7---|
 A|----------------------------------------------------|
 E|----------------------------------------------------|
 e|----------------------------------------------------|----------------------------------------------------|
 B|-13-13-13--12-12-12--10-10-10-10-10-10-10-10-10-10--|---12-12-12-12-12-12-12-12--11-11-11-11-11-11-11-11-|
 G|----------------------------------------------------|----------------------------------------------------|
 D|-10-10-10--9--9--9---7--7--7--7--7--7--7--7--7--7---|---10-10-10-10-10-10-10-10--9--9--9--9--9--9--9--9--|
 A|----------------------------------------------------|----------------------------------------------------|
 E|----------------------------------------------------|----------------------------------------------------|
 e|----------------------------------------------------|
 B|-13-13-13--12-12-12--10-10-10-10-10-10-10-10-10-10--|
 G|----------------------------------------------------|
 D|-10-10-10--9--9--9---7--7--7--7--7--7--7--7--7--7---|
 A|----------------------------------------------------|
 E|----------------------------------------------------|
 e|----------------------------------------------------|-----------------------|
 B|-13-13-13--12-12-12--10-10-10-10-10-10-10-10-10-----|------10b-10b-10b-10b--|
 G|----------------------------------------------------|-----------------------|
 D|-10-10-10--9--9--9---7--7--7--7--7--7--7--7--7------|-----------------------|
 A|----------------------------------------------------|-----------------------|
 E|----------------------------------------------------|-----------------------|

[Bridge] 
[Em] [Bm] [Em] [Bm] [Em] [Bm] [Em] [Bm] [Am] [Am] [Em] [Bm] [Em] [Bm] [Em] [Bm] [Am] [Am] [Em] [Bm] 
[Cborus] 
 
 e|----------------------------------------------------|
 B|-13-13-13--12-12-12--10-10-10-10-10-10-10-10-10-10--|
 G|----------------------------------------------------|
 D|-10-10-10--9--9--9---7--7--7--7--7--7--7--7--7--7---|
 A|----------------------------------------------------|
 E|----------------------------------------------------|
 e|----------------------------------------------------|----------------------------------------------------|
 B|-13-13-13--12-12-12--10-10-10-10-10-10-10-10-10-10--|---12-12-12-12-12-12-12-12--11-11-11-11-11-11-11-11-|
 G|----------------------------------------------------|----------------------------------------------------|
 D|-10-10-10--9--9--9---7--7--7--7--7--7--7--7--7--7---|---10-10-10-10-10-10-10-10--9--9--9--9--9--9--9--9--|
 A|----------------------------------------------------|----------------------------------------------------|
 E|----------------------------------------------------|----------------------------------------------------|
 e|----------------------------------------------------|
 B|-13-13-13--12-12-12--10-10-10-10-10-10-10-10-10-10--|
 G|----------------------------------------------------|
 D|-10-10-10--9--9--9---7--7--7--7--7--7--7--7--7--7---|
 A|----------------------------------------------------|
 E|----------------------------------------------------|
 e|----------------------------------------------------|-----------------------|
 B|-13-13-13--12-12-12--10-10-10-10-10-10-10-10-10-----|------10b-10b-10b-10b--|
 G|----------------------------------------------------|-----------------------|
 D|-10-10-10--9--9--9---7--7--7--7--7--7--7--7--7------|-----------------------|
 A|----------------------------------------------------|-----------------------|
 E|----------------------------------------------------|-----------------------|


Important: The song above is NOT stored on the Chordie server. The original song is hosted at www.azchords.com. Chordie works as a search engine and provides on-the-fly formatting. Chordie does not index songs against artists'/composers' will. To remove this song please click here.

Text color:
Chord color:
Chord grids: 
Font size:    
Page size: 

Am Bm Em
Rate #1 of 1 versions

Jango Player

Login - add to songbook

SHARE PAGE  



You need to log in to post comments