Guitar Tabs, Chords and Lyrics
Server problems seems to be fixed. Chordie has been experiencing problems with songs disappearing. These issues now seems to be fixed, but still verifying the fix. If you find anything strange, please email admin@chordie.com.


This Scene Is Dead  We Are Scientists

Riff 1.
 
 E-----------------------------------------------------|
 B-----------------------------------------------------|
 G-------------------------6-6-6-6-6-6-6-6-6-6-6-------|
 D--------7-7-7-7-7-7-7-7-7----------------------------|
 A-----------------------------------------------9-----|
 E-----------------------------------------------------|

Riff 2.
 
 E----------------------------------------------------------------------------|
 B----------------------------------------------------------------------------|
 G-------------------------6-6-4-4-2-2-1-1-----1-1-----2-2------1-1-------2-2-|
 D-----7-7-7-7-7-7-7-7-7-7-----------------4-4-----4-4-----4-4--------4-4-----|
 A----------------------------------------------------------------------------|
 E----------------------------------------------------------------------------|

Riff 1.
This scene is dead, but I'm still restless
An hour or so until last call, I guess
I shouldn't even be here, much less
Drinking myself into excess
Fill 1.
 
 E-------------------------|
 B------12-12--12----------|
 G-------------------------|
 D-------7--7---7----------|
 A-------------------------|
 E-------------------------|

I'm not going home till I'm done
Fill 2.
[A] [C#m]  
[A] [C#m]  
Chorus
[D]Well come on, we can't g[A]o on
[D]Well come on, we can't g[A]o on
[F#m]Well come on, you can't [A]go home
The night is [D]young
I'm blacking [Dm]out
But it's been [A]fun
Riff 1. and add F#m on the 9th fret
Well everything's another excuse
To keep from doing what I want too
Like I would really love to kiss you
But I guess I'm in no condition
Fill 1.
I'm not going home with no-one
Fill 2.
Chorus
[D]Well come on, we can't g[A]o on
[D]Well come on, we can't g[A]o on
[F#m]Well come on, you can't [A]go home
The night is [D]young
I'm blacking [Dm]out
But it's been [A]fun
Pre Solo:
 
 E----------------------------------------|
 B--14-14-14-14-17-17-17-17---------------|
 G--14-14-14-14-14-14-14-14---------------| Repeat 4x
 D----------------------------------------|
 A----------------------------------------|
 E----------------------------------------|

Solo:
 
 E------------16------------------14--------------12-----------------16--|
 B--14--12----------12--14--12----------12--14-----------12--14----------|
 G---------14----14------------14----14--------14----14----------14------|
 D-----------------------------------------------------------------------|
 A-----------------------------------------------------------------------|
 E-----------------------------------------------------------------------|

repeat 4x
listen for timing
Fill 1.
Well I said that's it I'm not going home with no-one
Not going home with no-one
Not going home with no-one
Fill 2.
Chorus
[D]Well come on, we can't g[A]o on
[D]Well come on, we can't g[A]o on
[F#m]Well come on, you can't [A]go home
The night is [D]young
I'm blacking [Dm]out
But it's been [A]fun
[F#m]You can't go home
The night is [D]young
I'm blacking [Dm]out
But it's been [A]fun
[F#m]You can't go home
The night is [D]young
I'm blacking [Dm]out
But it's [A]been

Important: The song above is NOT stored on the Chordie server. The original song is hosted at www.azchords.com. Chordie works as a search engine and provides on-the-fly formatting. Chordie does not index songs against artists'/composers' will. To remove this song please click here.

Text color:
Chord color:
Chord grids: 
Font size:    
Page size: 

A C#m D Dm F#m
Rate #1 of 5 versions

Login - add to songbook

SHARE PAGE  



You need to log in to post comments