Guitar Tabs, Chords and Lyrics
Major upgrade!! After one year development the new version of Chordie is now online! Please give feedback.


Back to Basom  Ween

[Intro] add pinky hammer-ons
 
 e|--5----3----------------------------|
 B|--7----5----------------------------|
 G|--6----4----------------------------|
 D|--0----0----------------------------|
 A|--0----0----------------------------|
 E|--X----X----------------------------|

[Verse] 
Reaching out now and I touch your face
[A]Please bel[G]ieve I'm only [F]traveling
Like seeking wonder from a foreign place
[A]It matters [G]not from where I'm [F]coming
[Bridge] 
[G] [F] [A]  
 
 e|----3--------1--------5-----------|
 B|----3--------1--------5-----------|
 G|----4--------2--------6-----------|
 D|----5--------3--------7-----------|
 A|----------------------------------|
 E|----------------------------------|

[Bridge] 
[G]And the snow so light is [F]bleeding
[G]We sleep so tight when we're [F]breathing
[F]Calm a little pint of soul, [G]creeping
[Cborus] 
Calm the [A]light - let me f[G]ly - Back to [F]Basom[G]
Calm the [A]light - let me f[G]ly - Back to [F]Basom[G]
[Instrumental] 
 
 e|---0----0-----------------| e|---x-----x------x---------------------|
 B|---2----0-----------------| B|---5-----7------8---------------------|
 G|---0----2-----------------| G|---6-----8------9---------------------|
 D|---2----2-----------------| D|---7-----9------10--------------------|
 A|---0----0-----------------| A|---x-----x------x---------------------|
 E|---x----x-----------------| E|---x-----x------x---------------------|

[Verse] 
[A]Left to locate the last trace of waste
[A]I picked it u[G]p and it was s[F]miling
Just like the dancer who has lost her leg
She [A]laughs alon[G]e but then she's [F]crying
[Bridge] 
[G]And the snow so light is [F]bleeding
[G]We sleep so tight when we're [F]breathing
[F]Calm a little pint of soul, [G]creeping
Calm the l[A]ight - let me [G]fly - Back to [F]Basom[G]
Calm the l[A]ight - let me [G]fly - Back to [F]Basom[G]
[Outro] 
 
 e|---0----0-----------------|
 B|---2----0-----------------|
 G|---0----2-----------------|
 D|---2----2-----------------|
 A|---0----0-----------------|
 E|---x----x-----------------| 


Important: The song above is NOT stored on the Chordie server. The original song is hosted at www.azchords.com. Chordie works as a search engine and provides on-the-fly formatting. Chordie does not index songs against artists'/composers' will. To remove this song please click here.

Text color:
Chord color:
Chord grids: 
Font size:    
Page size: 

A F G
Rate #1 of 3 versions

Jango Player

Login - add to songbook

SHARE PAGE  




You need to log in to post comments