Guitar Tabs, Chords and Lyrics
Server problems seems to be fixed. Chordie has been experiencing problems with songs disappearing. These issues now seems to be fixed, but still verifying the fix. If you find anything strange, please email admin@chordie.com.


Da Vinci  Weezer

Riff
 
 E|------------------------------|------------------------------|--
 B|------------------------------|------------------------------|--
 G|------------------------------|------------------------------|--
 D|--------9--------------8------|--------8--------------9------|--
 A|--6--9-----9--------9---------|-----9-----9--6--6--9---------|--
 E|--------------9--9------------|--9---------------------------|--

____________________________________________________________________________
Song is mostly just two finger power chords
 
 E|--------------------------------------
 B|--------------------------------------
 G|---------4----------------------------
 D|--4------2-------------------------6--
 A|--2--------------4--------6--------4--
 E|-----------------2--------4-----------

[B5] [E5] [F#5] [G#5] [C#5] 
CHORUS:
| B5 | E5 |
Even DaVinci couldn't paint you
| F#5 | B5/ / / /F#5/ / / / |
and Stephen Hawking can't explain you
| G#5 | C#5 |
Rosetta Stone cannot translate you
| F#5 | B5 |
I'm at a loss for words, I'm at a loss for words
BRIDGE
|B5///F#5///|C#5///G#5///|E5///F#5///| B5 |
OUTRO
| B5 | E5 | F#5 | B5 | "you guys are amazing!"

Important: The song above is NOT stored on the Chordie server. The original song is hosted at www.azchords.com. Chordie works as a search engine and provides on-the-fly formatting. Chordie does not index songs against artists'/composers' will. To remove this song please click here.

Text color:
Chord color:
Chord grids: 
Font size:    
Page size: 

B5 C#5 E5 F#5 G#5
Rate #1 of 1 versions

Jango Player

Login - add to songbook

SHARE PAGE  




You need to log in to post comments