Guitar Tabs, Chords and Lyrics
Server problems seems to be fixed. Chordie has been experiencing problems with songs disappearing. These issues now seems to be fixed, but still verifying the fix. If you find anything strange, please email admin@chordie.com.


In the Mall  Weezer

INTRO
(guitar riff) G - F# - E5
 
 e|---|| --------|--------|--------|-------- ||
 G|---||O --------|--------|--------|-------- O||
 B|434|| -----434|-----434|-----434|-----434 ||
 D|542|| -----542|-----542|-----542|-----542 ||
 A|542||O -----542|-----542|-----542|-----542 O||
 E|320|| -----320|-----320|-----320|-----320 ||

.X. X.X.X.X. X.X.X.X. X.X.X.X. X.X.X.X.
G F# E5 | G F# E5 | G F# E5 | G F# E5
(add drums)
G F# E5 | G F# E5 | G F# E5 | G F# E5
VERSE
[G]In [F#]the [E5]mall, [G]in [F#]the [E5]fall, [G]we're [F#]snea[E5]king to the emer[G]gen[F#]cy [E]hall
[G]First [F#]we [E5]smoke then [G]have [F#]a [E5]smoke, [G]get [F#]change [E5]for tokens and a pret[G]zel [F#]and [E5]Coke
CHORUS
[C] Now we're [D]ready
[G]In [F#]the [E5]mall, I was [G]in [F#]the [E5]mall
[C] Keep it [D]steady
[G]In [F#]the [E5]mall, I was [G]in [F#]the [E5]mall
G F# E5 | G F# E5
In the mall
VERSE
[G]Ho-[F#]li-[E5]days are [G]on [F#]their [E5]way, [G]these [F#]de-[E5]corations have so [G]much [F#]to [E5]say
[G]Lo[F#]ses [E5]meaning, [G]go[F#]ing [E5]west, [G]don't [F#]get [E5]facetious or you don't [G]get [F#]the [E5]best
CHORUS
[C] Bells are [D]ringing
[G]In [F#]the [E5]mall, I was [G]in [F#]the [E5]mall.
[C] Now we're [D]singing
[G]In [F#]the [E5]mall, I was [G]in [F#]the [E5]mall.
I was [G]in [F#]the [E5]mall
I was [G]in [F#]the [E5]mall
BRIDGE
[B] Take the [C]elevator
[C#] to the [D]escalator
[A] ride it [B]down and start [C]again
INSTRUMENTAL / BREAKDOWN (synth solo)
[B]X.X.X.X.
 
 e|7--5-57-|--------||
 B|-------4|--------||
 G|--------|--------||
 D|--------|--------||
 A|--------|--------||
 E|--------|--------||

(P.A.) "Cathy..." (I can't decipher what the heck she's saying)
INSTRUMENTAL (guitar solo)
(rhythm gtr.) (lead gtr. + DS)
 
 e|---|--------|--------|--------|-----4-24|544542---|-5457-7-|
 B|---|--------|--------|---5----|-/--\--- |---- -35-|--------|
 G|434|-444-434|-444-5--|7-------|-------- |---- ----|--------|
 D|542|-222-542|-222----|--------|-------- |---- ----|--------|
 A|542|-222-542|-222----|--------|-------- |---- ----|--------|
 E|320|-000-320|-000----|--------|-------- |---- ----|--------|

[(2/4)]  
 
 e|-----12- 12|- 12- 12- - 19/|21-21-21-21-|21---|
 B|------ - - |- - - - - - - -|- -- -- -- -|- ---|
 G|------ 14- |14- 13- 13- - -|- -- -- -- -|- ---|
 D|------ - - |- - - - - - - -|- -- -- -- -|- ---|
 A|------ - - |- - - - - - - -|- -- -- -- -|- ---|
 E|------ - - |- - - - - - - -|- -- -- -- -|- ---|

CHORUS
[C] All to[D]gether
[G]In [F#]the [E5]mall, I was [G]in [F#]the [E5]mall
[C] No place [D]better
[G]In [F#]the [E5]mall, I was [G]in [F#]the [E5]mall
I was [G]in [F#]the [E5]mall, [G]in [F#]the [E5]mall
OUTRO
G F# E5 | G F# E5 | G F# E5 ||

Important: The song above is NOT stored on the Chordie server. The original song is hosted at www.azchords.com. Chordie works as a search engine and provides on-the-fly formatting. Chordie does not index songs against artists'/composers' will. To remove this song please click here.

Text color:
Chord color:
Chord grids: 
Font size:    
Page size: 

A B C C# D E E5 F# G
Rate #1 of 3 versions

Jango Player

Login - add to songbook

SHARE PAGE  



You need to log in to post comments