Guitar Tabs, Chords and Lyrics
Server problems seems to be fixed. Chordie has been experiencing problems with songs disappearing. These issues now seems to be fixed, but still verifying the fix. If you find anything strange, please email admin@chordie.com.


Love Explosion  Weezer

This is my rendition of the song "Love Explosion" by Weezer
I think its pretty accurate. Any questions or comments email
Verse-
Guitar 1-
[A5] [F#5] [E5] [A5] [F#5] [E5] [A5]  
 
 e----------------------------------------------------------------------------
 b----------------------------------------------------------------------------
 g----7-6-4-2------------------7-6---4--2-------------------------------------
 d--7---------4-2------------7--------------------4--------2---------------7--
 a--7---------4-2---2-----0--7--------------------4--------2---------------7--
 E--5---------2-0-----0h2----5--------------------2--------0---------------5--

Little Girl Im happy...Since I came out, and saw the things that I've seen
[F#5] [E5] [D5] [E5] [A5]  
 
 e----------------------------------------------
 b----------------------------------------------
 g--7--6---4---2---------------------7---9------
 d---------------------4---2---------7---9--7---
 a---------------------4---2---------5---7--7---
 E---------------------2---0----------------5---

Now we get off, to pleasure eachother...
Guitar 2-
(Little riff played over the D5-E5-A5 at the end of verse)
 
 e----5---5---5---5-
 b-5h7-5h7-5h7-5h7--
 g------------------
 d------------------
 a------------------
 E------------------

Guitar 1-
[A5] [F#5] [E5] [A5] [F#5] [E5] [A5]  
 
 e---------------------------------------------------------------------------
 b---------------------------------------------------------------------------
 g---7-6--4-2--------------------------7-6-4-2-------------------------------
 d--7---------------4-----2-----------7------------------4-------2---------7-
 a--7---------------4-----2----2----0-7------------------4-------2---------7-
 E--5---------------2-----0------0h2--5------------------2-------0---------5-

Purpatrator of good vibes... In a world where nobody's kind to themselves
[F#5] [E5] [D5] [E5] [A5]  
 
 e---------------------------------------------------------------------------
 b---------------------------------------------------------------------------
 g--7---6----4-----2-----------------------------7---9-----------------------
 d-----------------------------4----2------------7---9--7--------------------
 a-----------------------------4----2------------5---7--7--------------------
 E-----------------------------2----0-------------------5--------------------

Now Ive found you... will both give out the love...
Guitar 2-
(Little riff over the D5-E5-A5 end of verse)
 
 e----5---5---5---5-
 b-5h7-5h7-5h7-5h7--
 g------------------
 d------------------
 a------------------
 E------------------

Chorus-
[A5] [B5] [E5]  
 
 e---------------------------------------------------------------------------
 b---------------------------------------------------------------------------
 g---7--------------------------------------------------------------9--------
 d---7------------------------------------9-------------------------9--------
 a---5------------------------------------9-------------------------7--------
 E----------------------------------------7----------------------------------

And all the bull that people say... Falls beneath the songs we sing...
[A5] [E5] [D5]  
 
 e----------------------------------------------
 b----------------------------------------------
 g-------------------9------7-------------------
 d-----7-------------9------7-------------------
 a-----7-------------7------5-------------------
 E-----5----------------------------------------

So jump out, jump out get your groove on
[A5] [E5] [D5]  
 
 e----------------------------------------------
 b----------------------------------------------
 g----------------9---7-------------------------
 d---7------------9---7-------------------------
 a---7------------7---5-------------------------
 E---5------------------------------------------

This song is for you, so come on
[A5] [E5] [D5] [A5]  
 
 e----------------------------------------------
 b----------------------------------------------
 g--------------9------7------------------------
 d--7-----------9------7---------------7--------
 a--7-----------7------5---------------7--------
 E--5----------------------------------5--------

Get out your house girl, give me a kiss...
 
 e----------------
 b----------------
 g----------------
 d--7--5--4--5----
 a--7--5--4--5----
 E--5--3--2--3----

solo-
(This is only the start of the solo, if someone could tab out the rest and email
me I'll add it in and give them credit)
 
 e--5-5-5-444-2--------------2h4h5-2h4h5------------------------------------------
 b--------------2h3h5-2h3h5-------------------------------------------------------
 g--------------------------------------------------------------------------------
 d--------------------------------------------------------------------------------
 a--------------------------------------------------------------------------------
 E--------------------------------------------------------------------------------

I didn't tab out each and every verse and chorus because they are all
played the same just with differant lyrics.
Sincerely,
Andy

Important: The song above is NOT stored on the Chordie server. The original song is hosted at www.azchords.com. Chordie works as a search engine and provides on-the-fly formatting. Chordie does not index songs against artists'/composers' will. To remove this song please click here.

Text color:
Chord color:
Chord grids: 
Font size:    
Page size: 

A5 B5 D5 E5 F#5
Rate #1 of 2 versions

Jango Player

Login - add to songbook

SHARE PAGE  



You need to log in to post comments