Guitar Tabs, Chords and Lyrics
Major upgrade!! After one year development the new version of Chordie is now online! Please give feedback.


Pink Triangle  Weezer

***NOTE*** Weezer plays this song with their guitars tuned
down half a step
Chords used:
[Em] [Am7] [D] [G] [Bm] [C]  
 
 1|--0-----0-----2-----3-----2-----0---|
 2|--0-----1-----3-----0-----3-----1---|
 3|--0-----0-----2-----0-----4-----0---|
 4|--2-----2-----0-----0-----4-----2---|
 5|--2-----0-----X-----2-----2-----3---|
 6|--0-----X-----X-----3-----X-----X---|

Intro - Clean guitar:(played through twice)
 
 1|-----------7---------------------------|
 2|--8---10---------10-8---7---8----------|
 3|----7----7---7--------7---7---7---7----|
 4|---------------9----------------9------|
 5|---------------------------------------|
 6|---------------------------------------|

Accompanied by:
 
 1|---------------------------------------|
 2|---------------------------------------|
 3|--0---2----4-----2-0--------0----------|
 4|------------------------4--------------|
 5|---------------------------------------|
 6|---------------------------------------|

Verse:
[Em]When I'm stable long e[Am7]nough
I [D]start to look around for [G]love
[Em]See a sweet in floral [Am7]prints
My [D]mind begins the arange[G]ments
But [Em]when I start to feel that [Am7]pullllllllllllllll
[D]Turns out I just pulled mys[G]elf
[Em]She would never go with [Am7]me
[D]Were I the last girl on [G]earth
Chorus:
[G]I'm du[Bm]mb, she's a [C]lesbia[G]n
I [C]thought I had [G]found the [D]one
[Em]We were [Bm]good as [C]married in my [G]mind
But [C]married in my [G]mind is no [D]good
Ohhh [C]pink tri[Am7]angle [D]on her sl[Em]eeve
[C]Let me know the [G]truth
[C]Let me [D]know the [G]truth
Verse 2 - same chords as verse 1:
Might have smoked a few in my time
But never thought it was a crime
Knew the day would surely come
When I'd chill and settle down
when I think I've found a good old fashioned girl
Then she put me in my plaaaaaaaaaace
Everyones a little queer
Oh can't she be a little straight
-- repeat chorus --
--Guitar interlude--
--repeat chorus with slow choppy strumming--
[G] I'm d[Bm]umb, she's a[C] lesbi[G]an
I [C]thought I had [G]found the [D]one
[Em]We were [Bm]good as [C]married in my [G]mind
But [C]married in my [G]mind is no [D]good,Ohhh ho hoooo
--return to normal strumming--
[C]pink tri[Am7]angle [D]on her sl[Em]eeve
[C]Let me know the [G]truth
[C]Let me [D]know the [G]truth
[G] I'm d[Bm]umb, she's a[C] lesbi[G]an
I [C]thought I had [G]found the [D]one, Ohhhhhh
[Em]We were [Bm]good as [C]married in my [G]mind
But [C]married in my [G]mind is no [D]good
Oh [C]pink tri[Am7]angle [D]on her sl[Em]eeve
[C]Let me know the [G]truth
[C]Let me [D]know the [G]truth[G]
[C]Let me [D]know the [G]truth[G]
[C]Let me [D]know the [G]truth
--repeat intro--

Important: The song above is NOT stored on the Chordie server. The original song is hosted at www.azchords.com. Chordie works as a search engine and provides on-the-fly formatting. Chordie does not index songs against artists'/composers' will. To remove this song please click here.

Text color:
Chord color:
Chord grids: 
Font size:    
Page size: 

Am7 Bm C D Em G
Rate #1 of 11 versions

Jango Player

Login - add to songbook

SHARE PAGE  




You need to log in to post comments