Guitar Tabs, Chords and Lyrics
Server problems seems to be fixed. Chordie has been experiencing problems with songs disappearing. These issues now seems to be fixed, but still verifying the fix. If you find anything strange, please email admin@chordie.com.


Why Bother?   Weezer

 
 []-------------------------------------------------------------------
 []-------------------------------------------------------------------
 []----------------------------------9-9-9-9-------------------------- X 2
 []--2-2-2-2--6-6-6-6--7-7-7-7--9-9--9-9-9-9--6-6-6-6--7-7-7-7--9-9---
 []--2-2-2-2--6-6-6-6--7-7-7-7--9-9--7-7-7-7--6-6-6-6--7-7-7-7--9-9---
 []--0-0-0-0--4-4-4-4--5-5-5-5--7-7-----------4-4-4-4--5-5-5-5--7-7---

 


 And den.... REALLY Scatato! - . - . - . - . -


 


 

 
 []--------------------------------
 []--------------------------------
 []-------6-6--2-2--4-4------------
 []--2-2--6-6--2-2--4-4------------ X 4
 []--2-2--4-4--0-0--2-2------------
 []--0-0---------------------------

 


 


 This is played by the bass but since its really kool i put it on teh geetar!


 


 

 
 []-------------------------------------------------
 []-------------------------------------------------
 []------------------------------------------------- This is played on the last time
 []--------6-----------7-----------9--9------------- on the Scatato thing... yeah...
 []-----6--------4--7--------6--9--------9--6-------
 []4-7--------5-----------7--------------------7--0-


Important: The song above is NOT stored on the Chordie server. The original song is hosted at www.azchords.com. Chordie works as a search engine and provides on-the-fly formatting. Chordie does not index songs against artists'/composers' will. To remove this song please click here.

This song is displayed as text-only. Transposing and tuning is only available for chordpro-songs.
Rate #1 of 7 versions

Jango Player

Login - add to songbook

SHARE PAGE  



You need to log in to post comments