Guitar Tabs, Chords and Lyrics
Update 25:10. 13:00. Site is back up running again. Songbooks are recovered. Woring on getting search back up..


Stay Young  We the Kings

We The Kings
2007
Key: Eb
Tuning: Standard EADGBe
Chords used:
Eb - x68886
Bb - x13331
Cm - x35543
[G#] [-] [466544]  
[Fm]G/B[-] - [133111]x254xx
F/A - x013xx
 
 Intro: Cm--Eb-G#--Cm--Bb

Verse 1:
[Cm] Let??s burn our dreams into the[G#] skyline
[Eb] Tattoo our sweat and tears for[G#]ever you and I
[Cm] Hold your breath till we cause the [G#]sun down
[Eb] This is the moment time is [G#]racing slow it down
Refrain:
Cause [G#]you a feeling I can??t [Bb]deny
Chorus 1:
We are only here for [Eb]one more night
S[Bb]cream it like you mean it
[Fm]One more time
We??l[G#]l tear down the building
([Eb]C??mon, C??mon)
Sing a[Bb]long oh oh oh oh oh
([Fm]C??mon, C??mon) S[G#]tay young
Verse 2:
[Cm] Let??s light the kerosene [G#]tonight
[Eb] Spark up like fireworks
Ex[G#]ploding in the sky
[Cm] Kick down the new year and the [G#]future
[Eb] We can??t get closer here
the [G#]walls are falling down
(Repeat Refrain and Chorus 1)
Chorus 2:
We??ll be holding ont[Eb]o this so tight
S[Bb]cream it like you mean it
[Fm]One more time
We??l[G#]l tear down the building
([Eb]C??mon, C??mon)
Sing a[Bb]long oh oh oh oh oh
([Fm]C??mon, C??mon) S[G#]tay young
Bridge:
Till my [Cm]breath
I??m[G/B] alive
When we??r[Bb]e side b[F/A]y side
[G#]Now This is dedicated to [Fm]you
Interlude: Do Chorus chords
 
 e|-6-6-6-6-3-3-3-3-------3---------|
 B|-----------------6-6-6---6-6-4-4-|
 G|---------------------------------|
 D|---------------------------------| x2
 A|---------------------------------|
 E|---------------------------------|
 e|-------------------------3-3-3-3-|
 B|-------4-4-4-4-4-6-6-6-6---------|
 G|-5-5-5---------------------------|
 D|---------------------------------|
 A|---------------------------------|
 E|---------------------------------|
 e|-6-6-8-8-6-6-8-8-8-8-8-8-8-8-8-8\3-|
 B|-----------------------------------|
 G|-----------------------------------|
 D|-----------------------------------|
 A|-----------------------------------|
 E|-----------------------------------|

([Eb]C??mon, C??mon)
Sing along oh oh oh oh oh
([Fm]C??mon, C??mon)
Sing along
([Eb]C??mon, C??mon)
Sing along oh oh oh oh oh
([Fm]C??mon, C??mon)
(Repeat Chorus 1 and Chorus 2)
End on Eb

Important: The song above is NOT stored on the Chordie server. The original song is hosted at www.azchords.com. Chordie works as a search engine and provides on-the-fly formatting. Chordie does not index songs against artists'/composers' will. To remove this song please click here.

Text color:
Chord color:
Chord grids: 
Font size:    
Page size: 

Bb Cm Eb Fm G# G/B
Rate #1 of 1 versions

Jango Player

Login - add to songbook

SHARE PAGE  



You need to log in to post comments