Guitar Tabs, Chords and Lyrics
Update 25:10. 13:00. Site is back up running again. Songbooks are recovered. Woring on getting search back up..


Better Off   Widespread Panic

 
 |--------12---|--10--|-------------------|
 |---14---14---|--10--|--12^10--14-12-10--|
 |---14---14---|--11--|-------------------|
 |---14--------|------|-------------------|
 |-------------|------|-------------------|
 |-------------|------|-------------------|

 


 A A D (over an A chord)


 


 Verses:


 [/] [/] [/] [/] [/] [/] [/] [/]  

 
 |--12-----------|--12----------|
 |--14--14-------|--14----------|
 |--14--14-------|--14----------|
 |------14-------|--------------|
 |---------------|--------------|
 |---------------|--------------|

 


 


 Verse 1:


 Funnin' round Grandpa's farm


 Really groovin' on the baby pigs


 Oh, I know they haven't even read the books I know


 Yeah, I understand the telephone


 But I really love to watch you talk your talk


 I love to watch you


 


 Chorus:


 (3x)


 

 
 |-----p-----------10----9\---|
 |--/12^10------------10------|
 |---------11-9/11------------|
 |----------------------------|
 |----------------------------|
 |----------------------------|

 


 


 p (hold bend)


 

 
 |--12^10-------------------/1----\----|
 |--------12\10-10-8-8-10-10--10--10---|
 |-------------------------------------|
 |-------------------------------------|
 |-------------------------------------|
 |-------------------------------------|

 


 


 Maybe we're better off


 I feel young dancing with you


 


 It happened all by itself


 


 Verse 2:


 What are we browning here for?


 Haven't we seen through this whole thing yet


 Gonna get together gonna write us a book


 Call it, 'Stop Running The World'


 Look like I'm back in business all over again


 


 Maybe we're better off


 Looking at you, looking at you there


 


 Little better, it happened all by itself


 (Groove on G)


 


 (Move to B)


 


 Transition from B back to A:


 

 
 |--------------------------|
 |--------------------------|
 |--------------------------|
 |--8-6---------------------|
 |------8-6---6-------------|
 |----------9---9-6-9-4-5---|


Important: The song above is NOT stored on the Chordie server. The original song is hosted at www.azchords.com. Chordie works as a search engine and provides on-the-fly formatting. Chordie does not index songs against artists'/composers' will. To remove this song please click here.

This song is displayed as text-only. Transposing and tuning is only available for chordpro-songs.
Rate #2 of 2 versions

Jango Player

Login - add to songbook

SHARE PAGE  




You need to log in to post comments