Guitar Tabs, Chords and Lyrics
Server problems seems to be fixed. Chordie has been experiencing problems with songs disappearing. These issues now seems to be fixed, but still verifying the fix. If you find anything strange, please email admin@chordie.com.


Centralia  William Fitzsimmons

Chords:
Dm (x00231)
Am*(x02010)
G* (300000)
F5 (130000)
[Dm]  
 
 e|------------1------------1------------1------------1------|
 B|--------3------------3------------3------------3----------|
 G|------2---2--------2---2--------2---2--------2---2--------|
 D|-0------------0------------0------------0------------0----|
 A|----------------------------------------------------------|
 E|----------------------------------------------------------|

[Am]  
 
 e|----------------------------------------------------------|
 B|------------1------------1------------1------------1------|
 G|--------0------------0------------0------------0----------|
 D|------2---2--------2---2--------2---2--------2---2--------|
 A|-0------------0------------0------------0------------0----|
 E|----------------------------------------------------------|

[G]  
 
 e|----------------------------------------------------------|
 B|------------0------------0------------0------------0------|
 G|--------0------------0------------0------------0----------|
 D|------0---0--------0---0--------0---0--------0---0--------|
 A|----------------------------------------------------------|
 E|-3------------3------------3------------3------------3----|

[F5]  
 
 e|----------------------------------------------------------|
 B|----------------------------------------------------------|
 G|------------0------------0------------0------------0------|
 D|--------0------------0------------0------------0----------|
 A|------3---3--------3---3--------3---3--------3---3--------|
 E|-1------------1------------1------------1------------1----|

These are just the simplified chords and picking patterns used. William puts in
lots of other variations that you'll just have to watch/listen to. He also occasionally
switches into his classic W.F. picking pattern:
[Dm]  
 
 e|--------1------------1-------|
 B|------------3------------3---|
 G|------2---2--------2---2-----|
 D|-0------------0------------0-|
 A|-----------------------------|
 E|-----------------------------|

Intro: Dm Am G F5
[Dm] I offer my[Am]self to you
I am a [G]broken thing
A cardinal with s[F5]evered wings[Dm]
In mourning to [Am]hide my face
Though I am a [G]sunderer
Guised in ma[F5]ternal grace
[Dm] [Am] [G] [F5]  
[Dm] Heir to a [Am]crippled crown
My little [G]Elysium
My God how I've [F5]let you down[Dm]
Let me fal[Am]l through the groun[G]d
Where you fel[F5]l back to you[Dm]
We burn like Cen[Am]tralia
Lost in the [G]ash below
Hoping to [F5]find a home[Dm]
So far may you [Am]run from me
To cities with [G]living leaves
No fire to [F5]fear beneath
This part x2 to end:
Let me fal[Am]l through the groun[G]d
Where you fel[F5]l back to you[Dm]

Important: The song above is NOT stored on the Chordie server. The original song is hosted at www.azchords.com. Chordie works as a search engine and provides on-the-fly formatting. Chordie does not index songs against artists'/composers' will. To remove this song please click here.

Text color:
Chord color:
Chord grids: 
Font size:    
Page size: 

Am Dm F5 G
Rate #1 of 1 versions

Jango Player

Login - add to songbook

SHARE PAGE  




You need to log in to post comments