Guitar Tabs, Chords and Lyrics
Server problems seems to be fixed. Chordie has been experiencing problems with songs disappearing. These issues now seems to be fixed, but still verifying the fix. If you find anything strange, please email admin@chordie.com.


Lions  William Fitzsimmons

Capo 3
Custom Tuning
[E] [G#] [C#] [F#] [B] [D#]  
Or alternatively
Capo 2
Custom Tuning
[F] [A] [D] [G] [C] [E]  
Chords and frets are relative to capo
This performance might be useful for your learning.
https://www.youtube.com/watch?v=rvV1qBoGdWU
If not noted down otherwise, just strum the chords.
Chords:
[G] [Am] [F] [C]  
 
 E--------------0----0---------
 C----0----0----0----0---------
 G----0----2----0----0---------
 D----0----2----5----2---------
 A----2----0----3----3---------
 F----2---------0--------------

Verse:
[Am] [G] [F]  
 
 E-----------------------------------0----------------
 C------------0----------------------0----------------
 G----2h4------------4------0--------0--strum---------
 D-----------------------------------5----------------
 A----0----0-----0-------------------3----------------
 F-------------------2---2-----2-----0----------------

Interlude:
[F]  
 
 E----1h3----------------------3--------------------------------------------
 C-----------0---------0h2-------------------------0------------------------
 G----------------0------------------0-----0h2------------------------------
 D--------------------------------------------------------0h2h3-------------
 A--------------------------------------------------------------------------
 F----0---0----0-------0----0-----0--------0----0-----0---0-----------------

[Am] [G] [F] [F]  
[Am] [G] [F] [F]  
And [Am]after [G] [F] [F]
the [Am]rains came[G] [F] [F]
And [Am]washed out [G] [F] [F]
her [Am]remnant[G] [F] [F]
[Am] [G] [F] [F]  
[Am] [G] [F] [F]  
And [Am]looking [G] [F] [F]
for [Am]traces[G] [F] [F]
Of [Am]bloodlines [G] [F] [F]
in [Am]faces[G] [F] [F]
And [G]you re[Am]mind me of the [F]breath that I [C]drew
For [G]you the [Am]shadow of a [F]ghost[F]
-Interlude-
[F] [F] [F] [F]  
[Am] [G] [F] [F]  
[Am] [G] [F] [F]  
There's[Am] lions [G] [F] [F]
be[Am]tween us[G] [F] [F]
They'll [Am]cut us [G] [F] [F]
to [Am]pieces[G] [F] [F]
And [Am]before [G] [F] [F]
the [Am]sun came[G] [F] [F]
For[Am]gotten [G] [F] [F]
her [Am]old name[G] [F] [F]
And [G]you re[Am]mind me of the [F]breath that I [C]drew
For [G]you the [Am]shadow of a [F]ghost [F] no more
-Interlude-
[F] [F] [F] [F]  
[F] [F] [F] [F]  

Important: The song above is NOT stored on the Chordie server. The original song is hosted at www.azchords.com. Chordie works as a search engine and provides on-the-fly formatting. Chordie does not index songs against artists'/composers' will. To remove this song please click here.

Text color:
Chord color:
Chord grids: 
Font size:    
Page size: 

A Am B C C# D D# E F F# G G#
Rate #1 of 1 versions

Jango Player

Login - add to songbook

SHARE PAGE  




You need to log in to post comments