Guitar Tabs, Chords and Lyrics
Server problems seems to be fixed. Chordie has been experiencing problems with songs disappearing. These issues now seems to be fixed, but still verifying the fix. If you find anything strange, please email admin@chordie.com.


No Such Pain as Love  Willy DeVille

117 bpm
Intro
[F#m] [E] [B] [F#m] [E] [B] [A] [B] [E] 
Chords for intro, let ring only 3 strings
[F#m] [Em] [B] [A]  
 
 e-|--5--|--4--|-----|---------------------------------------------------------|
 B-|--7--|--5--|--4--|--2------------------------------------------------------|
 G-|--6--|--4--|--4--|--2------------------------------------------------------|
 D-|-----|-----|--4--|--2------------------------------------------------------|
 A-|-----|-----|-----|---------------------------------------------------------|
 E-|-----|-----|-----|---------------------------------------------------------|

[E]Don't yo[Esus]u turn [E]and look[Esus] back at me
[A]Just quickly walk [E]away[Esus] [E] [Esus]
[E]All the [Esus]things I[E] tried d[Esus]on't work
[B]Your heart just will not change
Ohh [A]how could I've been [E]such a fool
[C#m]What was I dreaming [A]of
Well it's [E]sad but true
I've [B]learned from you
There's [A]no such pain as l[E]ove
[E]Now in t[Esus]he busy [E]streets [Esus]I walk alone
[A]And I never hear a [E]sound[Esus] [E] [Esus]
[E]Distrect[Esus]ed by my[E] thought[Esus]s of you
[B]With that new love you have found
[A]Like something in a s[E]tory book
[C#m]People needed so they made it [A]up
Well it's [E]sad but true
I've l[B]earnded from you
There's [A]no such pain as [E]Love
CHORUS
[E]And there's no such [C#m]pain as [E]love
No, there's no such [C#m]paaaa [B]aaaa [A]in as [E]love
[E]You won'[Esus]t see a [E]teardrop[Esus] fall
[A]Or the expression while my heart [E]breaks[Esus] [E] [Esus]
[E]I'll jus[Esus]t turn a[E]round in[Esus] the crowd
[B]To see you everyplace
No [A]I won't give my [E]heart away
[C#m]Again to a[A]nyone
Well it's s[E]ad but true
I've [B]learned from you
[A]There's no such pain as [E]love
FINAL CHORUS
[E]And there's no such [C#m]pain as [E]love
No, there's no such [C#m]paaaa [B]aaaa [A]in as [E]love
[E]And there's no such [C#m]pain as [E]love
No, there's no such [C#m]paaaa [B]aaaa [A]in as [E]love
No, there's no such [C#m]paaaa [B]aaaa [A]in as [E]love
break
[F#m] [C#m] [B] [A] [B] [E] 
Chords for intro, let ring only 3 strings
Playing E in the verse
[E] [Esus4]  
 
 e-|--0-----------0------------------------------------------------------------|
 B-|--0-----------0------------------------------------------------------------|
 G-|--1--------2---------------------------------------------------------------|
 D-|--2--------2---------------------------------------------------------------|
 A-|--2--------2---------------------------------------------------------------|
 E-|--0--------0---------------------------------------------------------------| 


Important: The song above is NOT stored on the Chordie server. The original song is hosted at www.azchords.com. Chordie works as a search engine and provides on-the-fly formatting. Chordie does not index songs against artists'/composers' will. To remove this song please click here.

Text color:
Chord color:
Chord grids: 
Font size:    
Page size: 

A B C#m E Em Esus Esus4 F#m
Rate #1 of 1 versions

Login - add to songbook

SHARE PAGE  




You need to log in to post comments