Guitar Tabs, Chords and Lyrics
Major upgrade!! After one year development the new version of Chordie is now online! Please give feedback.


Ex Lion Tamer  Wire

 
 -------------------------------------------------------------------------------
 -------------------------------------------------------------------------------

The song is very easy, because it uses only few easy chords. Remember the tricky "slides"
in the chorus - I've indicated them as chords in brackets.
Intro:
D5 A5 E5 G5 (x2)
First Verse:
[B5] There's a great da[B5]nger,
[B5] for the [A5]lone[G5]liest [A5]ranger [G5]in [A5]town,
[B5] no silver bu[B5]llets,
[B5] Tonto's [A5]split [G5]the [A5]scene
Chorus:
[D5] This week will [A5]solve your problems,[E5] [(F#5)G5] but now
[D5] fish fingers al[A5]l in a line,[E5] [G5]
[D5] all the bottle[A5]s stand empty,[E5] [(F#5)G5]
[D5] stay glued to your [A5]T.V. set.[E5] [G5]
Verse Two:
[B5] There's a great da[B5]nger,
[B5] at hand most ca[A5]ped cr[G5]usa[A5]der in[G5] to[A5]wn,
[B5] no cape of ju[B5]stice,
[B5] Robin's [A5]split [G5]the [A5]scene
[D5] This week will [A5]solve your problems,[E5] [(F#5)G5] but now
[D5] fish fingers al[A5]l in a line,[E5] [G5]
[D5] all the bottle[A5]s stand empty,[E5] [(F#5)G5]
[D5] stay glued to your [A5]T.V. set.[E5] [G5]
[D5] stay glued to your [A5]T.V. set. [E5] [G5] (x8)
End : E5 E5 F5 F#5 G5
Chords:
[D5] [A5] [E5] [G5] [F5] [F#5]  
 
 e|--------------------------------------------------------------------|
 B|--------------------------------------------------------------------|
 G|---7---------(2)----------------------------------------------------|
 D|---7-------7-(2)-------2----5----3----4-----------------------------|
 A|---5-------7-(0)-------2----5----3----4-----------------------------|
 E|-----------5-----------0----3----1----2-----------------------------|

Credit to SongMeanings.com for lyrics. Thank you!

Important: The song above is NOT stored on the Chordie server. The original song is hosted at www.azchords.com. Chordie works as a search engine and provides on-the-fly formatting. Chordie does not index songs against artists'/composers' will. To remove this song please click here.

Text color:
Chord color:
Chord grids: 
Font size:    
Page size: 

A5 B5 D5 E5 F#5 F5 G5
Rate #3 of 3 versions

Jango Player

Login - add to songbook

SHARE PAGE  




You need to log in to post comments