Guitar Tabs, Chords and Lyrics
Major upgrade!! After one year development the new version of Chordie is now online! Please give feedback.


Woman   Wolfmother

 
 E|--------------------|--------------------| |
 B|--------------------|--------------------| |
 G|--9-9-9-9-9-9-------|--9-9-9-9-9-9-------| |
 D|--9-9-9-9-9-9-------|--9-9-9-9-9-9-------| |
 A|--7-7-7-7-7-7-----5-|--7-7-7-7-7-7-----5-| |
 E|--------------5/7---|--------------5/7---| |

 


 |--X4


 

 
 E|--------------------|--------------------| |
 B|--------------------|--------------------| |
 G|--9-9-9-9-9-9-------|--------------------| |
 D|--9-9-9-9-9-9-------|--7--------5--------| |
 A|--7-7-7-7-7-7-----5-|--7--------5--------| |
 E|--------------5/7---|--5--------3--------| |

 


 CHORUS[---]


 

 
 E|-----------------|------------------|-----------------|------------------|
 B|-----------------|------------------|-----------------|------------------|
 G|-----------------|------------------|-----------------|------------------|
 D|--7--------------|--10--------------|--7--------------|--10--------------|
 A|--7--------------|--10--------------|--7--------------|--10--------------|
 E|--5--------------|--8---------------|--5--------------|--8---------------|
 E|-----------------|------------------|-----------------|------------------|
 B|-----------------|------------------|-----------------|------------------|
 G|-----------------|------------------|-----------------|------------------|
 D|--9--------------|--12--------------|-----------------|------------------|
 A|--9--------------|--12--------------|-----------------|------------------|
 E|--7--------------|--10--------------|-----------------|------------------|

 


 (Let Ring)


 [---]  

 
 E|--------------------|--------------------| |
 B|--------------------|--------------------| |
 G|--9-9-9-9-9-9-------|--9-9-9-9-9-9-------| |
 D|--9-9-9-9-9-9-------|--9-9-9-9-9-9-------| |
 A|--7-7-7-7-7-7-----5-|--7-7-7-7-7-7-----5-| |
 E|--------------5/7---|--------------5/7---| |

 


 |--X3


 

 
 E|--------------------|--------------------| |
 B|--------------------|--------------------| |
 G|--9-9-9-9-9-9-------|--------------------| |
 D|--9-9-9-9-9-9-------|--7--------5--------| |
 A|--7-7-7-7-7-7-----5-|--7--------5--------| |
 E|--------------5/7---|--5--------3--------| |

 


 [---] 


 

 
 E|-----------------|------------------|-----------------|------------------|
 B|-----------------|------------------|-----------------|------------------|
 G|-----------------|------------------|-----------------|------------------|
 D|--7--------------|--10--------------|--7--------------|--10--------------|
 A|--7--------------|--10--------------|--7--------------|--10--------------|
 E|--5--------------|--8---------------|--5--------------|--8---------------|
 E|-----------------|------------------|-----------------|------------------|
 B|-----------------|------------------|-----------------|------------------|
 G|-----------------|------------------|-----------------|------------------|
 D|--9--------------|--12--------------|-----------------|------------------|
 A|--9--------------|--12--------------|-----------------|------------------|
 E|--7--------------|--10--------------|-----------------|------------------|

 


 (Let Ring)


 BRIDGE ---


 

 
 E|----------------------|----------------------| |
 B|----------------------|----------------------| |
 G|----------------------|----------------------| |-x4
 D|----------------------|----------------------| |
 A|--7p5---5-------------|--7p5---5-------------| |
 E|------7---7-5-7-5-3-5-|------7---7-5-7-5-3-0-| |

 


 [---] 


 [---]  

 
 E|----------------------|----------------------| |
 B|----------------------|----------------------| |
 G|----------------------|----------------------| |-x8
 D|----------------------|----------------------| |
 A|--------5---------5---|--------5--------7----| |
 E|--0-5-7-----0-5-7-----|--0-5-7----0-5-7------| |

 


 [---] 


 

 
 E|----------------------|-----------------------|
 B|----------------------|-----------------------|
 G|----------------------|-----------------------|
 D|----------------------|--7---------5----------|
 A|--7p5---5-------------|--7---------5----------|
 E|------7---7-5-7-5-3-5-|--5---------3----------|

 


 Plat this once


 [---]  

 
 E|--------------------|--------------------| |
 B|--------------------|--------------------| |
 G|--9-9-9-9-9-9-------|--9-9-9-9-9-9-------| |
 D|--9-9-9-9-9-9-------|--9-9-9-9-9-9-------| |
 A|--7-7-7-7-7-7-----5-|--7-7-7-7-7-7-----5-| |
 E|--------------5h7---|--------------5h7---| | 

 


 |-x3


 

 
 E|--------------------|--------------------| |
 B|--------------------|--------------------| |
 G|--9-9-9-9-9-9-------|--------------------| |
 D|--9-9-9-9-9-9-------|--7--------5--------| |
 A|--7-7-7-7-7-7-----5-|--7--------5--------| |
 E|--------------5h7---|--5--------3--------| |

 


 [---] 


 

 
 E|-----------------|------------------|-----------------|------------------|
 B|-----------------|------------------|-----------------|------------------|
 G|-----------------|------------------|-----------------|------------------|
 D|--7--------------|--10--------------|--7--------------|--10--------------|
 A|--7--------------|--10--------------|--7--------------|--10--------------|
 E|--5--------------|--8---------------|--5--------------|--8---------------|
 E|-----------------|------------------|-----------------|------------------|
 B|-----------------|------------------|-----------------|------------------|
 G|-----------------|------------------|-----------------|------------------|
 D|--9--------------|--12--------------|-----------------|------------------|
 A|--9--------------|--12--------------|-----------------|------------------|
 E|--7--------------|--10--------------|-----------------|------------------|


Important: The song above is NOT stored on the Chordie server. The original song is hosted at www.azchords.com. Chordie works as a search engine and provides on-the-fly formatting. Chordie does not index songs against artists'/composers' will. To remove this song please click here.

This song is displayed as text-only. Transposing and tuning is only available for chordpro-songs.
Rate #1 of 2 versions

Jango Player

Login - add to songbook

SHARE PAGE  




You need to log in to post comments