Guitar Tabs, Chords and Lyrics
Server problems seems to be fixed. Chordie has been experiencing problems with songs disappearing. These issues now seems to be fixed, but still verifying the fix. If you find anything strange, please email admin@chordie.com.


Anathema   Wolves at the Gate

 
 B |-----------------10-10-10-10-10-10-10-10-8-8-8-8-8-8-8-8-|
 F#|---------------------------------------------------------|
 D |---------------------------------------------------------|
 A |-0---0---0---0-------------------------------------------|
 E |-0---0---0---0-------------------------------------------|
 A |-0---0---0---0-------------------------------------------|
 B |--------------------------------------------------------------|
 F#|----------------------11-11-11-11-11-11-11-11-8-8-8-8-8-8-8-8-|
 D |--------------------------------------------------------------|
 A |-0---0----(7)-x-----------------------------------------------|
 E |-0---0--------x-(5)-------------------------------------------|
 A |-0---0---0----------------------------------------------------|
 B |-----------------10-10-10-10-10-10-10-10-8-8-8-8-8-8-8-8-|
 F#|---------------------------------------------------------|
 D |---------------------------------------------------------|
 A |-0---0---0---0-------------------------------------------|
 E |-0---0---0---0-------------------------------------------|
 A |-0---0---0---0-------------------------------------------|
 B |---------------------------------------------------------------|
 F#|-----------------------11-11-11-11-11-11-11-11-8-8-8-8-8-8-8-8-|
 D |---------7*----------------------------------------------------|
 A |-0---0---------x-(3)-------------------------------------------|
 E |-0---0---------x-----------------------------------------------|
 A |-0---0------0--------------------------------------------------|
 B |--------------------------------|------------------------|
 F#|-10--10--10--10--10--10--10--10-|-8--8--8--8--8--8--8--8-|
 D |-x---x---x---x---x---x---x---x--|-x--x--x--x--x--x--x--x-|
 A |-7---7---7---7---7---7---7---7--|-5--5--5--5--5--5--5--5-|
 E |--------------------------------|------------------------|
 A |--------------------------------|------------------------|
 B |-10--------10--------10----|-13------13------13------13/15-|
 F#|-----8--8------8--8------8-|-----13------13------13--------|
 D |---------------------------|-------------------------------|
 A |---------------------------|-------------------------------|
 E |---------------------------|-------------------------------|
 A |---------------------------|-------------------------------|

 


 


 [Verse 1] 


 


 

 
 B |------------------------------------------|------------------------------------------|
 F#|------------------------------------------|------------------------------------------|
 D |------------------------------------------|------------------------------------------|
 A |------------------------------------------|------------------------------------------|
 E |----0--------------8--8--8--8--5--5--5--5-|----0--------------8--8--8--8--5--5--5--5-|
 A |-0-----3/5--0------8--8--8--8--5--5--5--5-|-0-----3/5--0------8--8--8--8--5--5--5--5-|
 B |------------------------------------------|------------------------------------------|
 F#|------------------------------------------|------------------------------------------|
 D |------------------------------------------|------------------------------------------|
 A |------------------------------------------|------------------------------------------|
 E |----0--------------8--8--8--8--5--5--5--5-|----0--------------8--8--8--8--5--5--5--5-|
 A |-0-----3/5--0------8--8--8--8--5--5--5--5-|-0-----3/5--0------8--8--8--8--5--5--5--5-|
 B |---------------------------------|---------------------------------|
 F#|---------------------------------|---------------------------------|
 D |---------------------------------|---------------------------------|
 A |---------------------------------|---------------------------------|
 E |----0-----------------0----------|----0-----------------0----------|
 A |-0-----3/5--0------0-----3/5--0--|-0-----3/5--0------0-----3/5--0--|
 B |---------------------------------|---------------------------------------------|
 F#|---------------------------------|---------------------------------------------|
 D |------------7--------------------|---------------------------------------------|
 A |---------------------------------|---------------------------------------8--7--|
 E |----0-----------------0----------|------0--------------------------------------|
 A |-0-----3/5---------0-----3/5--0--|-8p7-----7--3/5--7------10--10--10-10--------|

 


 


 [Pre-cborus] 


 


 

 
 B |---------------------------------------------|
 F#|---------------------------------------------|
 D |---------------------------------------------|
 A |---------------------------------------------|
 E |-----1-------1------1------1-------1---------|
 A |-7-------7-------7-----7-------7-------7--=--|
 B |------------------------------------------|----------------------------------------|
 F#|------------------------------------------|----------------------------------------|
 D |------------------------------------------|----------------------------------------|
 A |------------------------------------------|----------------------------------------|
 E |-----1-------1------1------1-------1------|-----1-------1-----1------1-------1-----|
 A |-7-------7-------7-----7-------7-------7--|-7-------7------7-----7-------7-------7-|
 B |------------------------------------------|----------------------------------------|
 F#|------------------------------------------|----------------------------------------|
 D |------------------------------------------|----------------------------------------|
 A |-7-------7-------7-----7-------7-------7--|----------------------------------------|
 E |-----1-------1------1------1-------1------|-----1-------1-----1------1-------1-----|
 A |-7-------7-------7-----7-------7-------7--|-7-------7------7-----7-------7-------7-|

 


 


 [Cborus] 


 


 

 
 B |---------------------------------|---------------------------------|
 F#|-10--10--10--10--10--10--10--10--|-11--11--11--11--11--11--11--11--|
 D |-x---x---x---x---x---x---x---x---|-x---x---x---x---x---x---x---x---|
 A |-7---7---7---7---7---7---7---7---|-8---8---8---8---8---8---8---8---|
 E |---------------------------------|---------------------------------|
 A |---------------------------------|---------------------------------|
 B |-------------------------|------------------------|
 F#|-6--6--6--6--6--6--6--6--|------------------------|
 D |-x--x--x--x--x--x--x--x--|------------------------|
 A |-3--3--3--3--3--3--3--3--|-3-----------5----------|
 E |-------------------------|-3---3---3---5---5---5--|
 A |-------------------------|-3---3---3---5---5---5--|

 


 PM


 

 
 B |---------------------------------|------------------------------|
 F#|-10--10--10--10--10--10--10--10--|-11--11--11--11---------------|
 D |-x---x---x---x---x---x---x---x---|-x---x---x---x----------------|
 A |-7---7---7---7---7---7---7---7---|-8---8---8---8-----7----------|
 E |---------------------------------|-------------------7---7---7--|
 A |---------------------------------|-------------------7---7---7--|
 B |------------------------------|----------------------|
 F#|-10---10---10---10---10---10--|-10---10---10---13~---|
 D |-x----x----x----x----x----x---|-x----x----x----------|
 A |-7----7----7----7----7----7---|-7----7----7----10~---|
 E |------------------------------|----------------------|
 A |------------------------------|----------------------|

 


 


 [Instrumental] 


 


 

 
 B |-----------------10-10-10-10-10-10-10-10-8-8-8-8-8-8-8-8-|
 F#|---------------------------------------------------------|
 D |---------------------------------------------------------|
 A |-0---0---0---0-------------------------------------------|
 E |-0---0---0---0-------------------------------------------|
 A |-0---0---0---0-------------------------------------------|
 B |--------------------------------------------------------------|
 F#|----------------------11-11-11-11-11-11-11-11-8-8-8-8-8-8-8-8-|
 D |--------------------------------------------------------------|
 A |-0---0----(7)-x-(5)-------------------------------------------|
 E |-0---0--------x-----------------------------------------------|
 A |-0---0---0----------------------------------------------------|
 B |-----------------10-10-10-10-10-10-10-10-8-8-8-8-8-8-8-8-|
 F#|---------------------------------------------------------|
 D |---------------------------------------------------------|
 A |-0---0---0---0-------------------------------------------|
 E |-0---0---0---0-------------------------------------------|
 A |-0---0---0---0-------------------------------------------|
 B |---------------------------------------------------------------|
 F#|-----------------------11-11-11-11-11-11-11-11-8-8-8-8-8-8-8-8-|
 D |---------7*----------------------------------------------------|
 A |-0---0---------x-(3)-------------------------------------------|
 E |-0---0---------x-----------------------------------------------|
 A |-0---0------0--------------------------------------------------|
 B |--------------------------------|------------------------|
 F#|-10--10--10--10--10--10--10--10-|-8--8--8--8--8--8--8--8-|
 D |-x---x---x---x---x---x---x---x--|-x--x--x--x--x--x--x--x-|
 A |-7---7---7---7---7---7---7---7--|-5--5--5--5--5--5--5--5-|
 E |--------------------------------|------------------------|
 A |--------------------------------|------------------------|
 B |-10--------10--------10----|-13------13------13------13/15-|
 F#|-----8--8------8--8------8-|-----13------13------13--------|
 D |---------------------------|-------------------------------|
 A |---------------------------|-------------------------------|
 E |---------------------------|-------------------------------|
 A |---------------------------|-------------------------------|

 


 


 [Bridge] 


 (Clean, delay)


 


 PM


 

 
 B |-------------------------------------------------|
 F#|-------------------------------------------------|
 D |-7--7--7--7--7--7--7--7--7--7--7--7--7--7--7--7--|
 A |-7--7--7--7--7--7--7--7--7--7--7--7--7--7--7--7--|
 E |-5--5--5--5--5--5--5--5--5--5--5--5--5--5--5--5--|
 A |-------------------------------------------------|
 B |-------------------------------------------------|
 F#|-------------------------------------------------|
 D |-5--5--5--5--5--5--5--5--3--3--3--3--3--3--3--3--|
 A |-5--5--5--5--5--5--5--5--3--3--3--3--3--3--3--3--|
 E |-3--3--3--3--3--3--3--3--1--1--1--1--1--1--1--1--|
 A |-------------------------------------------------|
 B |-------------------------------------------------|
 F#|-------------------------------------------------|
 D |-7--7--7--7--7--7--7--7--7--7--7--7--7--7--7--7--|
 A |-7--7--7--7--7--7--7--7--7--7--7--7--7--7--7--7--|
 E |-5--5--5--5--5--5--5--5--5--5--5--5--5--5--5--5--|
 A |-------------------------------------------------|
 B |-------------------------------------------------|
 F#|-------------------------------------------------|
 D |-5--5--5--5--5--5--5--5--3--3--3--3--3--3--3--3--|
 A |-5--5--5--5--5--5--5--5--3--3--3--3--3--3--3--3--|
 E |-3--3--3--3--3--3--3--3--1--1--1--1--1--1--1--1--|
 A |-------------------------------------------------|
 B |----------------------------|----------------------------|----------------------------|----------------|
 F#|-------------------10---10--|-------------------10---10--|-------------------10---10--|---------13-----|
 D |-9h10~---------12-----------|-9h10~---------12-----------|-9h10~---------12-----------|-9h10~-------9~-|
 A |------------8---------------|------------8---------------|------------8---------------|----------------|
 E |----------------------------|----------------------------|----------------------------|----------------|
 A |----------------------------|----------------------------|----------------------------|----------------|

 


 


 (Dirty)


 


 

 
 B |------12--13~---|-15---------------8------|------12--13~---|-15------------------------|
 F#|----------------|-------11--10-11-----10~-|----------------|-------10--11--10--11--10--|
 D |----------------|-------------------------|----------------|---------------------------|
 A |-0~-------------|-0-----------------------|-0~-------------|-0-------------------------|
 E |-0~-----------0-|-0-----------------------|-0~-----------0-|-0-------------------------|
 A |-0~-----------0-|-0-----------------------|-0~-----------0-|-0-------------------------|

 


 


 [Cborus] 


 


 

 
 B |---------------------------------|---------------------------------|
 F#|-10--10--10--10--10--10--10--10--|-11--11--11--11--11--11--11--11--|
 D |-x---x---x---x---x---x---x---x---|-x---x---x---x---x---x---x---x---|
 A |-7---7---7---7---7---7---7---7---|-8---8---8---8---8---8---8---8---|
 E |---------------------------------|---------------------------------|
 A |---------------------------------|---------------------------------|
 B |-------------------------|------------------------|
 F#|-6--6--6--6--6--6--6--6--|------------------------|
 D |-x--x--x--x--x--x--x--x--|------------------------|
 A |-3--3--3--3--3--3--3--3--|-3-----------5----------|
 E |-------------------------|-3---3---3---5---5---5--|
 A |-------------------------|-3---3---3---5---5---5--|

 


 PM


 

 
 B |---------------------------------|------------------------------|
 F#|-10--10--10--10--10--10--10--10--|-11--11--11--11---------------|
 D |-x---x---x---x---x---x---x---x---|-x---x---x---x----------------|
 A |-7---7---7---7---7---7---7---7---|-8---8---8---8-----7----------|
 E |---------------------------------|-------------------7---7---7--|
 A |---------------------------------|-------------------7---7---7--|
 B |------------------------------|----------------------|
 F#|-10---10---10---10---10---10--|-10---10---10---13~---|
 D |-x----x----x----x----x----x---|-x----x----x----------|
 A |-7----7----7----7----7----7---|-7----7----7----10~---|
 E |------------------------------|----------------------|
 A |------------------------------|----------------------|

 


 


 [Outro] 


 


 

 
 B |---------------------------------------------|
 F#|---------------------------------------------|
 D |---------------------------------------------|
 A |---------------------------------------------|
 E |-----1-------1------1------1-------1---------|
 A |-7-------7-------7-----7-------7-------7--=--|
 B |------------------------------------------|----------------------------------------|
 F#|------------------------------------------|----------------------------------------|
 D |------------------------------------------|----------------------------------------|
 A |------------------------------------------|----------------------------------------|
 E |-----1-------1------1------1-------1------|-----1-------1-----1------1-------1-----|
 A |-7-------7-------7-----7-------7-------7--|-7-------7------7-----7-------7-------7-|
 B |------------------------------------------|----------------------------------------|
 F#|------------------------------------------|----------------------------------------|
 D |------------------------------------------|----------------------------------------|
 A |-7-------7-------7-----7-------7-------7--|----------------------------------------|
 E |-----1-------1------1------1-------1------|-----1-------1-----1------1-------1-----|
 A |-7-------7-------7-----7-------7-------7--|-7-------7------7-----7-------7-------7-|

 


 


 B |-22~--|


 

 
 F#|------|
 D |------|
 A |------|
 E |------|
 A |------| 


Important: The song above is NOT stored on the Chordie server. The original song is hosted at www.azchords.com. Chordie works as a search engine and provides on-the-fly formatting. Chordie does not index songs against artists'/composers' will. To remove this song please click here.

This song is displayed as text-only. Transposing and tuning is only available for chordpro-songs.
Rate #1 of 1 versions

Jango Player

Login - add to songbook

SHARE PAGE  



You need to log in to post comments