Guitar Tabs, Chords and Lyrics
Update 25:10. 13:00. Site is back up running again. Songbooks are recovered. Woring on getting search back up..


Cheated Hearts   Yeah Yeah Yeahs

 
 e|---------|
 B|---------|
 G|---------|
 D|---------|

 


 A|-0-0-0-0-|


 

 
 E|---------|

 


 


 PRE-VERSE]


 "Jaded by..."


 

 
 e|------------------|--
 B|------------------| |
 G|------------------| X 7
 D|------------------| |
 A|-0-0-0-0-0-0-12-12| | [with harmonics]
 E|------------------|--
 e|------------------|
 B|------------------|
 G|--------------7-7-|
 D|--------------7-7-|
 A|-0-0-0-0-0-0--5-5-|
 E|------------------|

 


 


 VERSE [guitar & bass] -----


 

 
 e|-----0-------0---------0-----| |
 B|-----2-------2-----------2---| |
 G|-----2-------2-------2-----2-| |
 D|-----2-------2------(2)------| |
 A|-0-0-0-0-0-0-0-0-0-0-0-0-0-0-| |
 E|-----------------------------| |

 


 |


 

 
 e|-----0-------0---------0-----| |
 B|-----2-------2-----------2---| |
 G|-----2-------2-------2-----2-| |
 D|-----2-------2------(2)------| |
 A|-x-x---x-x-x---x-x-x---------| |
 E|-2-2-2-2-2-2-2-2-2-2-2-2-2-2-| |

 


 X 2


 

 
 e|-----0-------0---------0-----| |
 B|-----2-------2-----------2---| |
 G|-----2-------2-------2-----2-| |
 D|-----2-------2------(2)------| |
 A|-x-x---x-x-x---x-x-x---------| |
 E|-0-0-0-0-0-0-0-0-0-0-0-0-0-0-| |

 


 |


 

 
 e|-----0-------0---------0-----| |
 B|-----2-------2-----------2---| |
 G|-----2-------2-------2-----2-| |
 D|-----2-------2------(2)------| |
 A|-x-x---x-x-x---x-x-x---------| |
 E|-2-2-2-2-2-2-2-2-2-2-2-2-2-2-| |

 


 [-----] 


 


 INTERLUDE


 

 
 e|------|------|----0-----|------|
 B|-2----|-2----|2-----2---|-2----|
 G|-2----|-2----|2-------2-|-2----|
 D|-2----|-0----|2---------|-0----|
 A|-0----|-2----|0---------|-2----|
 E|------|------|----------|------|

 


 


 [guitar & bass] 


 "Well i'm... taka-taka.... takin' it off"


 

 
 e|---------------------------------| ----
 B|-----2-------2-------2-------2---| |
 G|-2-------2-------2-------2-------| |
 D|---------------------------------| |
 A|-0-0-0-0-0-0-0-0-0-0-0-0-0-0-0-0-| |
 E|---------------------------------| |

 


 |


 

 
 e|---------------------------------| |
 B|-----2-------2-------2-------2---| |
 G|-2-------2-------2-------2-------| |
 D|---------------------------------| |
 A|-2-2-2-2-2-2-2-2-2-2-2-2-2-2-2-2-| |
 E|---------------------------------| |

 


 X 2


 

 
 e|---------------------------------| |
 B|-----2-------2-------2-------2---| |
 G|-2-------2-------2-------2-------| |
 D|---------------------------------| |
 A|-4-4-4-4-4-4-4-4-4-4-4-4-4-4-4-4-| |
 E|---------------------------------| |

 


 |


 

 
 e|---------0-----2-----2-----2-0---| |
 B|-----2-----2-----2-----2---------| |
 G|-2-----------2-----2-----2-------| |
 D|-0-0-0-0-0-0-0-0-0-0-0-0-0-0-0-0-| |
 A|---------------------------------| |
 E|---------------------------------| ----

 


 


 HEAVY PART


 

 
 e|----------------------------------3^--|
 B|--------------------------------------|
 G|-----5-5-----5-5------12-12-----------|
 D|-----5-5-----5-5------12-12-----------|
 A|-0-0-----0-0--------------------------|
 E|------------------0-0--------0-0------|
 e|--------------------------------------|
 B|--------------------------------------|
 G|-----5-5-----5-5------12-12-----------|
 D|-----5-5-----5-5------12-12------///--|
 A|-0-0-----0-0---------------------///--|
 E|------------------0-0--------0-0------|
 e|----------------------------------3^--|
 B|--------------------------------------|
 G|-----5-5-----5-5------12-12-----------|
 D|-----5-5-----5-5------12-12-----------|
 A|-0-0-----0-0--------------------------|
 E|------------------0-0--------0-0------|
 e|--------------------------------------|
 B|--------------------------------------|
 G|-----5-5-----5-5------12-12-----------|
 D|-----5-5-----5-5------12-12-----------|
 A|-0-0-----0-0--------------------------|
 E|------------------0-0--------0-0-12/0-| 

 


 


 RIFF


 "uhh uhh uh uh..."


 

 
 e|--------------------------------------------------|-
 B|-------14----------14-----------14----------14----| |
 G|-------------14-----------------------14-------14-| |
 D|--------------------------------------------------| X 4
 A|-12-12-12-12-12-12-12-12--14-14-14-14-14-14-14-14-| |
 E|--------------------------------------------------|-

 


 


 "she takes on high..."


 

 
 e|--------------------------------------------------|-
 B|-------14----------14-----------14----------14----| |
 G|-------------14-----------------------14-------14-| |
 D|--------------------------------------------------| X 3
 A|-12-12-12-12-12-12-12-12--14-14-14-14-14-14-14-14-| |
 E|--------------------------------------------------|-
 e|--------------------------------------------------|
 B|-------14----------14-----------14----------14----|
 G|-------------14-----------------------14-------14-|
 D|--------------------------------------------------|
 A|--------------------------------------------------|
 E|-14-14-14-14-14-14-14-14--12-12-12-12-12-12-12-12-|
 e|--------------------------------------------------|-
 B|-------14----------14-----------14----------14----| |
 G|-------------14-----------------------14-------14-| |
 D|--------------------------------------------------| X 3
 A|-12-12-12-12-12-12-12-12--14-14-14-14-14-14-14-14-| |
 E|--------------------------------------------------|-
 e|--------------------------------------------------|
 B|-------14----------14-----------14----------14----|
 G|-------------14-----------------------14-------14-|
 D|--------------------------------------------------|
 A|--------------------------------------------------|
 E|-14-14-14-14-14-14-14-14--12-12-12-12-12-12-12-12-|

 


 


 GUITAR 1


 

 
 D|------------------|
 A|-0----------------|
 E|------------------|

 


 


 GUITAR 2


 INTRO


 

 
 e|---------|
 B|---------|
 G|---------|
 D|---------|

 


 A|-0-0-0-0-|


 

 
 E|---------|

 


 


 PRE-VERSE]


 "Cheated by..."


 

 
 e|------------------|--
 B|------------------| |
 G|------------------| X 7
 D|------------------| |
 A|-0-0-0-0-0-0-12-12| | [with harmonics]
 E|------------------|--

 


 


 VERSE [guitar & bass]


 "Now take these rings..." -----


 

 
 e|-----0-------0---------0-----| |
 B|-----2-------2-----------2---| |
 G|-----2-------2-------2-----2-| |
 D|-----2-------2------(2)------| |
 A|-0-0-0-0-0-0-0-0-0-0-0-0-0-0-| |
 E|-----------------------------| |

 


 |


 

 
 e|-----0-------0---------0-----| |
 B|-----2-------2-----------2---| |
 G|-----2-------2-------2-----2-| |
 D|-----2-------2------(2)------| |
 A|-x-x---x-x-x---x-x-x---------| |
 E|-2-2-2-2-2-2-2-2-2-2-2-2-2-2-| |

 


 X 4


 

 
 e|-----0-------0---------0-----| |
 B|-----2-------2-----------2---| |
 G|-----2-------2-------2-----2-| |
 D|-----2-------2------(2)------| |
 A|-x-x---x-x-x---x-x-x---------| |
 E|-0-0-0-0-0-0-0-0-0-0-0-0-0-0-| |

 


 |


 

 
 e|-----0-------0---------0-----| |
 B|-----2-------2-----------2---| |
 G|-----2-------2-------2-----2-| |
 D|-----2-------2------(2)------| |
 A|-x-x---x-x-x---x-x-x---------| |
 E|-2-2-2-2-2-2-2-2-2-2-2-2-2-2-| |

 


 [-----] 


 HEAVY PART [END]


 

 
 e|----------------------------------3^--|
 B|--------------------------------------|
 G|-----5-5-----5-5------12-12-----------|
 D|-----5-5-----5-5------12-12-----------|
 A|-0-0-----0-0--------------------------|
 E|------------------0-0--------0-0------|
 e|--------------------------------------|
 B|--------------------------------------|
 G|-----5-5-----5-5------12-12-----------|
 D|-----5-5-----5-5------12-12------///--|
 A|-0-0-----0-0---------------------///--|
 E|------------------0-0--------0-0------|
 e|----------------------------------3^--|
 B|--------------------------------------|
 G|-----5-5-----5-5------12-12-----------|
 D|-----5-5-----5-5------12-12-----------|
 A|-0-0-----0-0--------------------------|
 E|------------------0-0--------0-0------|
 e|--------------------------------------|
 B|--------------------------------------|
 G|-----5-5-----5-5------12-12/----------|
 D|-----5-5-----5-5------12-12/----------|
 A|-0-0-----0-0--------------------------|
 E|------------------0-0-----------------|
 --------------------------------------------- 


Important: The song above is NOT stored on the Chordie server. The original song is hosted at www.azchords.com. Chordie works as a search engine and provides on-the-fly formatting. Chordie does not index songs against artists'/composers' will. To remove this song please click here.

This song is displayed as text-only. Transposing and tuning is only available for chordpro-songs.
Rate #2 of 2 versions

Jango Player

Login - add to songbook

SHARE PAGE  




You need to log in to post comments