Guitar Tabs, Chords and Lyrics
Server problems seems to be fixed. Chordie has been experiencing problems with songs disappearing. These issues now seems to be fixed, but still verifying the fix. If you find anything strange, please email admin@chordie.com.


Empty Street   Yellowcard

 
 D|--5~-------------------------------------------------------------------------|
 A|--5~-------------------------------------------------------------------------|
 F|--7~-------------------------------------------------------------------------|
 C|--0~-------------------------------------------------------------------------|
 G|--0~-------------------------------------------------------------------------|
 C|--0~-------------------------------------------------------------------------|
 D|---------------------------------------------------------------------------|
 A|---------------------------------------------------------------------------|
 F|---------------------------------------------------------------------------|
 C|---------------------------------------------------------------------------|
 G|---------------------------------------------------------------------------|
 C|---------------------------------------------------------------------------|

 


 


 [Verse] 


 


 "Boxing up the fireworks; Cancel my parade; The street is empty tonight, tonight..."


 "Everything is quiet now; The city holds its breath for me; Their spirit has died, it died..."


 


 [Pre Cborus] 


 


 "Running my whole life to reach this place..."


 (Guitar 1 & 2 - Distortion)


 

 
 D|-----------------------------------|-------------------------------------|
 A|-----------------------------------|-------------------------------------|
 F|--4-4-4-4-4-4-4-4-4-4-4-4-4-4-4-4--|--6-6-6-6-6-6-6-6-7-7-7-7-7-7-7-7----|
 C|--0-0-0-0-0-0-0-0-0-0-0-0-0-0-0-0--|--0-0-0-0-0-0-0-0-0-0-0-0-0-0-0-0----|
 G|--x-x-x-x-x-x-x-x-x-x-x-x-x-x-x-x--|--x-x-x-x-x-x-x-x-x-x-x-x-x-x-x-x----|
 C|--5-5-5-5-5-5-5-5-5-5-5-5-5-5-5-5--|--7-7-7-7-7-7-7-7-9-9-9-9-9-9-9-9----|

 


 


 "And just when I arrive; The moment fades out..."


 (Guitar 1 & 2 - Distortion)


 

 
 D|-----------------------------------|-------------------------------------|
 A|-----------------------------------|-------------------------------------|
 F|--4-4-4-4-4-4-4-4-4-4-4-4-4-4-4-4--|--6-6-6-6-6-6-6-6-7-7-7-7-7-7-7-7----|
 C|--0-0-0-0-0-0-0-0-0-0-0-0-0-0-0-0--|--0-0-0-0-0-0-0-0-0-0-0-0-0-0-0-0----|
 G|--x-x-x-x-x-x-x-x-x-x-x-x-x-x-x-x--|--x-x-x-x-x-x-x-x-x-x-x-x-x-x-x-x----|
 C|--5-5-5-5-5-5-5-5-5-5-5-5-5-5-5-5--|--7-7-7-7-7-7-7-7-9-9-9-9-9-9-9-9----|

 


 


 "Will you let me?"


 (Guitar 1 & 2 - Distortion)


 

 
 D|-----------------------------------|-------|
 A|-----------------------------------|-------|
 F|--4-4-4-4-4-4-4-4-4-4-4-4-6-6-6----|--7----|
 C|--0-0-0-0-0-0-0-0-0-0-0-0-0-0-0----|--0----|
 G|--x-x-x-x-x-x-x-x-x-x-x-x-x-x-x----|--x----|
 C|--5-5-5-5-5-5-5-5-5-5-5-5-5-5-5-0--|--5----|

 


 


 [Cborus] 


 


 "Stop time; Your hand in mine; Bring me closer as it all gets ripped away..."


 (Guitar 1 - Distortion)


 

 
 D|--------------------------|--------------------------|--------------------------|--------------------------|
 A|--5--5--5--5--5--5--5--5--|--------------------------|--------------------------|--------------------------|
 F|--7--7--7--7--7--7--7--7--|--4--4--4--4--4--4--4--4--|--------------------------|--------------------------|
 C|--0--0--0--0--0--0--0--0--|--5--5--5--5--4--4--4--4--|--7--7--7--7--7--7--7--7--|--5--5--5--5--5--5--5--5--|
 G|--0--0--0--0--0--0--0--0--|--2--2--2--2--2--2--2--2--|--5--5--5--5--5--5--5--5--|--5--5--5--5--5--5--5--5--|
 C|--0--0--0--0--0--0--0--0--|--2--2--2--2--2--2--2--2--|--4--4--4--4--4--4--4--4--|--5--5--5--5--5--5--5--5--|

 


 


 (Guitar 2 - Distortion)


 

 
 D|--------------------------|--------------------------|--------------------------|--------------------------|
 A|--10-10-10-10-10-10-10-10-|--8--8--8--8--7--7--7--7--|--10-10-10-10-10-10-10-10-|--8--8--8--8--8--8--8--8--|
 F|---x--x--x--x--x--x--x--x-|--x--x--x--x--x--x--x--x--|---x--x--x--x--x--x--x--x-|--x--x--x--x--x--x--x--x--|
 C|---7--7--7--7--7--7--7--7-|--5--5--5--5--4--4--4--4--|---7--7--7--7--7--7--7--7-|--5--5--5--5--5--5--5--5--|
 G|--------------------------|--------------------------|--------------------------|--------------------------|
 C|--------------------------|--------------------------|--------------------------|--------------------------|

 


 


 (Guitar 3 - Distortion w/ Delay)


 

 
 D|--------------------------|--------------------------|--------------------------|--------------------------|
 A|--------------------------|--------------------------|--------------------------|--------------------------|
 F|--------------------------|--------------------------|--------------------------|-------------7/12-12-11~--|
 C|--------------------------|--------------------------|--------------------------|--------------------------|
 G|--------------------------|--------------------------|--------------------------|--------------------------|
 C|--------------------------|--------------------------|--------------------------|--------------------------|

 


 


 (Guitar 4 - Distortion w/ Delay)


 

 
 D|--------------------------|--------------------------|--------------------------|--------------------------|
 A|--------------------------|--------------------------|--------------------------|------------15/20-20-19~--|
 F|--------------------------|--------------------------|--------------------------|--------------------------|
 C|--------------------------|--------------------------|--------------------------|--------------------------|
 G|--------------------------|--------------------------|--------------------------|--------------------------|
 C|--------------------------|--------------------------|--------------------------|--------------------------|

 


 


 "And I say goodbye to the clearest eyes; I won't be with you, but I won't be far away..."


 (Guitar 1 - Distortion)


 

 
 D|--------------------------|--------------------------|--------------------------|--------------------------|
 A|--5--5--5--5--5--5--5--5--|--------------------------|--------------------------|--------------------------|
 F|--7--7--7--7--7--7--7--7--|--4--4--4--4--4--4--4--4--|--------------------------|--------------------------|
 C|--0--0--0--0--0--0--0--0--|--5--5--5--5--4--4--4--4--|--7--7--7--7--7--7--7--7--|--5--5--5--5--5--5--5--5--|
 G|--0--0--0--0--0--0--0--0--|--2--2--2--2--2--2--2--2--|--5--5--5--5--5--5--5--5--|--5--5--5--5--5--5--5--5--|
 C|--0--0--0--0--0--0--0--0--|--2--2--2--2--2--2--2--2--|--4--4--4--4--4--4--4--4--|--5--5--5--5--5--5--5--5--|

 


 


 (Guitar 2 - Distortion)


 

 
 D|--------------------------|--------------------------|--------------------------|--------------------------|
 A|--10-10-10-10-10-10-10-10-|--8--8--8--8--7--7--7--7--|--10-10-10-10-10-10-10-10-|--8--8--8--8--8--8--8--8--|
 F|---x--x--x--x--x--x--x--x-|--x--x--x--x--x--x--x--x--|---x--x--x--x--x--x--x--x-|--x--x--x--x--x--x--x--x--|
 C|---7--7--7--7--7--7--7--7-|--5--5--5--5--4--4--4--4--|---7--7--7--7--7--7--7--7-|--5--5--5--5--5--5--5--5--|
 G|--------------------------|--------------------------|--------------------------|--------------------------|
 C|--------------------------|--------------------------|--------------------------|--------------------------|

 


 


 (Guitar 3 - Distortion w/ Delay)


 

 
 D|--------------------------|--------------------------|--------------------------|--------------------------|
 A|--------------------------|--------------------------|--------------------------|--------------------------|
 F|--------------------------|--------------------------|--------------------------|-------------7/12-12-11~--|
 C|--------------------------|--------------------------|--------------------------|--------------------------|
 G|--------------------------|--------------------------|--------------------------|--------------------------|
 C|--------------------------|--------------------------|--------------------------|--------------------------|

 


 


 (Guitar 4 - Distortion w/ Delay)


 

 
 D|--------------------------|--------------------------|--------------------------|--------------------------|
 A|--------------------------|--------------------------|--------------------------|------------15/20-20-19~--|
 F|--------------------------|--------------------------|--------------------------|--------------------------|
 C|--------------------------|--------------------------|--------------------------|--------------------------|
 G|--------------------------|--------------------------|--------------------------|--------------------------|
 C|--------------------------|--------------------------|--------------------------|--------------------------|

 


 


 [Interlude] 


 


 (Guitar 1 - Distortion)


 

 
 D|--------|
 A|--5~----|
 F|--7~----|
 C|--0~----|
 G|--0~----|
 C|--0~----|

 


 


 [Verse] 


 


 "I don't need an answer, but if you re-wrote the past d'you think you'd..."


 (Guitar 2 - Clean w/ Delay)


 

 
 D|-------------------------------------------|---------------------------------------------|
 A|-------------------------------------------|---------------------------------------------|
 F|--11-11-7-7-11-11-7-7-11-11-7-7-11-11-7-7--|--12-12-7-7-12-12-7-7-12-12-7-7-12-12-7-7----|
 C|---0--0-0-0--0--0-0-0--0--0-0-0--0--0-0-0--|---0--0-0-0--0--0-0-0--0--0-0-0--0--0-0-0----|
 G|-------------------------------------------|---------------------------------------------|
 C|-------------------------------------------|---------------------------------------------|
 PM |------------------------------------------------------------------------------------|

 


 


 "Just leave me out; Leave me out..."


 


 

 
 D|-------------------------------------------|------------------------------------------|
 A|-------------------------------------------|------------------------------------------|
 F|--11-11-7-7-11-11-7-7-11-11-7-7-11-11-7-7--|--9-9-7-11-7-9-7-7-11-11-7-7-11-11-7-7----|
 C|---0--0-0-0--0--0-0-0--0--0-0-0--0--0-0-0--|--0-0-0--0-0-0-0-0--0--0-0-0--0--0-0-0----|
 G|-------------------------------------------|------------------------------------------|
 C|-------------------------------------------|------------------------------------------|
 PM |------------------------------------------------------------------------------------|

 


 


 "Or will you spin your head around in every crowded room to see..."


 (Guitar 2 - Clean w/ Delay)


 

 
 D|------------------------------------------|-----------------------------------------------|
 A|------------------------------------------|-----------------------------------------------|
 F|--11-9-7-7-11-11-7-7-11-11-7-7-11-11-7-7--|--12-12-7-7-12-12-7-7-12-12-7-7-11-11-11-11----|
 C|---0-0-0-0--0--0-0-0--0--0-0-0--0--0-0-0--|---0--0-0-0--0--0-0-0--0--0-0-0--0--0--0--0----|
 G|------------------------------------------|-----------------------------------------------|
 C|------------------------------------------|-----------------------------------------------|
 PM |------------------------------------------------------------------------------------|

 


 


 "If I can be found; Be found..."


 (Guitar 1 - Distortion)


 

 
 D|--5~--------------------------------------|-----------------------------------------------|
 A|--5~--------------------------------------|-----------------------------------------------|
 F|--7~--------------------------------------|-----------------------------------------------|
 C|--0~--------------------------------------|-----------------------------------------------|
 G|--0~--------------------------------------|-----------------------------------------------|
 C|--0~--------------------------------------|-----------------------------------------------|

 


 


 (Guitar 2 - Clean w/ Delay)


 

 
 D|-------------------------------------------|------------------------------------------|
 A|-------------------------------------------|------------------------------------------|
 F|--11-11-7-7-11-11-7-7-11-11-7-7-11-11-7-7--|--9-9-7-11-7-9-7-7-11-11-7-7-11-11-7-7----|
 C|---0--0-0-0--0--0-0-0--0--0-0-0--0--0-0-0--|--0-0-0--0-0-0-0-0--0--0-0-0--0--0-0-0----|
 G|-------------------------------------------|------------------------------------------|
 C|-------------------------------------------|------------------------------------------|
 PM |--------------------------------------------------------------------------------|

 


 


 [Pre Cborus] 


 


 "Every single plan; You will forget..."


 (Guitar 1 & 2 - Distortion)


 

 
 D|-----------------------------------|-------------------------------------|
 A|-----------------------------------|-------------------------------------|
 F|--4-4-4-4-4-4-4-4-4-4-4-4-4-4-4-4--|--6-6-6-6-6-6-6-6-7-7-7-7-7-7-7-7----|
 C|--0-0-0-0-0-0-0-0-0-0-0-0-0-0-0-0--|--0-0-0-0-0-0-0-0-0-0-0-0-0-0-0-0----|
 G|--x-x-x-x-x-x-x-x-x-x-x-x-x-x-x-x--|--x-x-x-x-x-x-x-x-x-x-x-x-x-x-x-x----|
 C|--5-5-5-5-5-5-5-5-5-5-5-5-5-5-5-5--|--7-7-7-7-7-7-7-7-9-9-9-9-9-9-9-9----|

 


 


 "So do what makes you happy; No regrets now..."


 (Guitar 1 & 2 - Distortion)


 

 
 D|-----------------------------------|-------------------------------------|
 A|-----------------------------------|-------------------------------------|
 F|--4-4-4-4-4-4-4-4-4-4-4-4-4-4-4-4--|--6-6-6-6-6-6-6-6-7-7-7-7-7-7-7-7----|
 C|--0-0-0-0-0-0-0-0-0-0-0-0-0-0-0-0--|--0-0-0-0-0-0-0-0-0-0-0-0-0-0-0-0----|
 G|--x-x-x-x-x-x-x-x-x-x-x-x-x-x-x-x--|--x-x-x-x-x-x-x-x-x-x-x-x-x-x-x-x----|
 C|--5-5-5-5-5-5-5-5-5-5-5-5-5-5-5-5--|--7-7-7-7-7-7-7-7-9-9-9-9-9-9-9-9----|

 


 


 "I won't let you..."


 (Guitar 1 & 2 - Distortion)


 

 
 D|-----------------------------------|-------|
 A|-----------------------------------|-------|
 F|--4-4-4-4-4-4-4-4-4-4-4-4-6-6-6----|--7----|
 C|--0-0-0-0-0-0-0-0-0-0-0-0-0-0-0----|--0----|
 G|--x-x-x-x-x-x-x-x-x-x-x-x-x-x-x----|--x----|
 C|--5-5-5-5-5-5-5-5-5-5-5-5-5-5-5-0--|--5----|

 


 


 [Cborus] 


 


 "Stop time; Your hand in mine; Bring me closer as it all gets ripped away..."


 (Guitar 1 - Distortion)


 

 
 D|--------------------------|--------------------------|--------------------------|--------------------------|
 A|--5--5--5--5--5--5--5--5--|--------------------------|--------------------------|--------------------------|
 F|--7--7--7--7--7--7--7--7--|--4--4--4--4--4--4--4--4--|--------------------------|--------------------------|
 C|--0--0--0--0--0--0--0--0--|--5--5--5--5--4--4--4--4--|--7--7--7--7--7--7--7--7--|--5--5--5--5--5--5--5--5--|
 G|--0--0--0--0--0--0--0--0--|--2--2--2--2--2--2--2--2--|--5--5--5--5--5--5--5--5--|--5--5--5--5--5--5--5--5--|
 C|--0--0--0--0--0--0--0--0--|--2--2--2--2--2--2--2--2--|--4--4--4--4--4--4--4--4--|--5--5--5--5--5--5--5--5--|

 


 


 (Guitar 2 - Distortion)


 

 
 D|--------------------------|--------------------------|--------------------------|--------------------------|
 A|--10-10-10-10-10-10-10-10-|--8--8--8--8--7--7--7--7--|--10-10-10-10-10-10-10-10-|--8--8--8--8--8--8--8--8--|
 F|---x--x--x--x--x--x--x--x-|--x--x--x--x--x--x--x--x--|---x--x--x--x--x--x--x--x-|--x--x--x--x--x--x--x--x--|
 C|---7--7--7--7--7--7--7--7-|--5--5--5--5--4--4--4--4--|---7--7--7--7--7--7--7--7-|--5--5--5--5--5--5--5--5--|
 G|--------------------------|--------------------------|--------------------------|--------------------------|
 C|--------------------------|--------------------------|--------------------------|--------------------------|

 


 


 (Guitar 3 - Distortion w/ Delay)


 

 
 D|--------------------------|--------------------------|--------------------------|--------------------------|
 A|--------------------------|--------------------------|--------------------------|--------------------------|
 F|--------------------------|--------------------------|--------------------------|-------------7/12-12-11~--|
 C|--------------------------|--------------------------|--------------------------|--------------------------|
 G|--------------------------|--------------------------|--------------------------|--------------------------|
 C|--------------------------|--------------------------|--------------------------|--------------------------|

 


 


 (Guitar 4 - Distortion w/ Delay)


 

 
 D|--------------------------|--------------------------|--------------------------|--------------------------|
 A|--------------------------|--------------------------|--------------------------|------------15/20-20-19~--|
 F|--------------------------|--------------------------|--------------------------|--------------------------|
 C|--------------------------|--------------------------|--------------------------|--------------------------|
 G|--------------------------|--------------------------|--------------------------|--------------------------|
 C|--------------------------|--------------------------|--------------------------|--------------------------|

 


 


 "And I say goodbye to the clearest eyes; I won't be with you, but I won't be far away..."


 (Guitar 1 - Distortion)


 

 
 D|--------------------------|--------------------------|--------------------------|--------------------------|
 A|--5--5--5--5--5--5--5--5--|--------------------------|--------------------------|--------------------------|
 F|--7--7--7--7--7--7--7--7--|--4--4--4--4--4--4--4--4--|--------------------------|--------------------------|
 C|--0--0--0--0--0--0--0--0--|--5--5--5--5--4--4--4--4--|--7--7--7--7--7--7--7--7--|--5--5--5--5--5--5--5--5--|
 G|--0--0--0--0--0--0--0--0--|--2--2--2--2--2--2--2--2--|--5--5--5--5--5--5--5--5--|--5--5--5--5--5--5--5--5--|
 C|--0--0--0--0--0--0--0--0--|--2--2--2--2--2--2--2--2--|--4--4--4--4--4--4--4--4--|--5--5--5--5--5--5--5--5--|

 


 


 (Guitar 2 - Distortion)


 

 
 D|--------------------------|--------------------------|--------------------------|--------------------------|
 A|--10-10-10-10-10-10-10-10-|--8--8--8--8--7--7--7--7--|--10-10-10-10-10-10-10-10-|--8--8--8--8--8--8--8--8--|
 F|---x--x--x--x--x--x--x--x-|--x--x--x--x--x--x--x--x--|---x--x--x--x--x--x--x--x-|--x--x--x--x--x--x--x--x--|
 C|---7--7--7--7--7--7--7--7-|--5--5--5--5--4--4--4--4--|---7--7--7--7--7--7--7--7-|--5--5--5--5--5--5--5--5--|
 G|--------------------------|--------------------------|--------------------------|--------------------------|
 C|--------------------------|--------------------------|--------------------------|--------------------------|

 


 


 (Guitar 3 - Distortion w/ Delay off)


 

 
 D|--------------------------|--------------------------|--------------------------|--------------------------|
 A|--------------------------|--------------------------|--------------------------|--------------------------|
 F|--------------------------|--------------------------|--------------------------|--------------------6-7~--|
 C|--------------------------|--------------------------|--------------------------|--------------------------|
 G|--------------------------|--------------------------|--------------------------|--------------------------|
 C|--------------------------|--------------------------|--------------------------|--------------------------|

 


 


 (Guitar 4 - Distortion w/ Delay off)


 

 
 D|--------------------------|--------------------------|--------------------------|--------------------------|
 A|--------------------------|--------------------------|--------------------------|------------------14-15~--|
 F|--------------------------|--------------------------|--------------------------|--------------------------|
 C|--------------------------|--------------------------|--------------------------|--------------------------|
 G|--------------------------|--------------------------|--------------------------|--------------------------|
 C|--------------------------|--------------------------|--------------------------|--------------------------|

 


 


 [Guitar Solo] 


 


 (Guitar 1 - Distortion)*Play 2 times*


 

 
 D|----------------------------------|------------------------------------|
 A|----------------------------------|------------------------------------|
 F|----------------------------------|------------------------------------|
 C|--7-7-7-7-7-7-7-7--7-7-7-7-7-7----|--5-5-5-5-5-5-5-5--5-5-5-5-5-5------|
 G|--5-5-5-5-5-5-5-5--5-5-5-5-5-5-0--|--2-2-2-2-2-2-2-2--2-2-2-2-2-2-0----|
 C|--4-4-4-4-4-4-4-4--4-4-4-4-4-4-0--|--2-2-2-2-2-2-2-2--2-2-2-2-2-2-0----|
 D|-----------------------------------------------------------------------|
 A|-----------------------------------------------------------------------|
 F|--7-7-7-7-7-7-7-7--7-7-7-7-7-7-7--|--6-6-6-6-6-6-6-6--6-6-6-6-6-6------|
 C|--0-0-0-0-0-0-0-0--0-0-0-0-0-0-0--|--0-0-0-0-0-0-0-0--0-0-0-0-0-0------|
 G|--x-x-x-x-x-x-x-x--x-x-x-x-x-x-x--|--x-x-x-x-x-x-x-x--x-x-x-x-x-x-0----|
 C|--9-9-9-9-9-9-9-9--9-9-9-9-9-9-9--|--7-7-7-7-7-7-7-7--7-7-7-7-7-7-0----|

 


 


 (Guitar 3 - Distortion)*Play 2 times*


 

 
 D|--17-17------17-17-----------------14-14------|--17-17------17-17-----------------14-----------|
 A|--------15~--------15~--14-15-15~--------15~--|--------15~--------15~--14-15-15~-----15-15~----|
 F|----------------------------------------------|------------------------------------------------|
 C|----------------------------------------------|------------------------------------------------|
 G|----------------------------------------------|------------------------------------------------|
 C|----------------------------------------------|------------------------------------------------|
 D|--17-17------17-17----------------14-14------|--17-17------17-17-----------------------17/19--|
 A||-------15~--------15~--14-15-15~-------15~--|--------15~--------15~--14-15-15~--14/15--------|
 F|---------------------------------------------|------------------------------------------------|
 C|---------------------------------------------|------------------------------------------------|
 G|---------------------------------------------|------------------------------------------------|
 C|---------------------------------------------|------------------------------------------------|

 


 


 (Guitar 4 - Distortion)*Play 2 times*


 

 
 D|---------------------------------------|----------------------------------------|
 A|--10-10------10-10-------------7-7-----|--10-10-----10-10-------------7---------|
 F|--------7~---------7~--6-7-7~------7~--|--------7~--------7~--6-7-7~----7-7~----|
 C|---------------------------------------|----------------------------------------|
 G|---------------------------------------|----------------------------------------|
 C|---------------------------------------|----------------------------------------|
 D|---------------------------------------|-------------------------------------------|
 A|--10-10------10-10-------------7-7-----|--10-10-----10-10-----------------10/12----|
 F|--------7~---------7~--6-7-7~------7~--|--------7~--------7~--6-7-7~--6/7----------|
 C|---------------------------------------|-------------------------------------------|
 G|---------------------------------------|-------------------------------------------|
 C|---------------------------------------|-------------------------------------------|

 


 


 [Bridge] 


 


 "I remember when you asked me how..."


 "Far that I could throw this love I found..."


 "And then I heard you say, 'I'll wait around...'"


 (Guitar 1 - Distortion)*Play 3 times*


 

 
 D|-----------------------------------|-------------------------------------|
 A|-----------------------------------|-------------------------------------|
 F|--4-4-4-4-4-4-4-4-4-4-4-4-4-4-4-4--|--6-6-6-6-6-6-6-6-7-7-7-7-7-7-7-7----|
 C|--0-0-0-0-0-0-0-0-0-0-0-0-0-0-0-0--|--0-0-0-0-0-0-0-0-0-0-0-0-0-0-0-0----|
 G|--x-x-x-x-x-x-x-x-x-x-x-x-x-x-x-x--|--x-x-x-x-x-x-x-x-x-x-x-x-x-x-x-x----|
 C|--5-5-5-5-5-5-5-5-5-5-5-5-5-5-5-5--|--7-7-7-7-7-7-7-7-9-9-9-9-9-9-9-9----|

 


 


 (Guitar 3 - Distortion)


 

 
 D|---------|
 A|--10~----|
 F|---------|
 C|---------|
 G|---------|
 C|---------|

 


 


 (Guitar 4 - Distortion)


 

 
 D|--17~----|
 A|---------|
 F|---------|
 C|---------|
 G|---------|
 C|---------|

 


 


 "I won't let you..."


 (Guitar 1 & 2 - Distortion)


 

 
 D|-----------------------------------|-------------------------------------|
 A|-----------------------------------|-------------------------------------|
 F|--4-4-4-4-4-4-4-4-4-4-4-4-6-6-6----|--7-7-7-7-7-7-7-7-7-7-7-7-7-7-7-7----|
 C|--0-0-0-0-0-0-0-0-0-0-0-0-0-0-0----|--0-0-0-0-0-0-0-0-0-0-0-0-0-0-0-0----|
 G|--x-x-x-x-x-x-x-x-x-x-x-x-x-x-x----|--x-x-x-x-x-x-x-x-x-x-x-x-x-x-x-x----|
 C|--5-5-5-5-5-5-5-5-5-5-5-5-5-5-5-0--|--5-5-5-5-5-5-5-5-5-5-5-5-5-5-5-5----|

 


 


 [Interlude] 


 


 (Guitar 1 - Clean)


 

 
 D|---------------------------|-------------0--3---3--------|
 A|--5--------5-5------5-5----|-----------3-3--3---3-3-0----|
 F|--7--------7-7--7---7-7----|--0--------0-0--0---0-0-0----|
 C|--0----0---0-0--0---0---0--|--0----0--------0-------0----|
 G|--0----0--------0---0---0--|--x----x---------------------|
 C|--0----0-------------------|--5----5---------------------|
 D|---------------------------|-------------0--3---3------|-----------0-0------0-0----|--------|
 A|--5--------5-5------5-5----|-----------3-3--3---3-3-0--|-------3---3-3--3---3-3----|--3~----|
 F|--7--------7-7--7---7-7----|--0--------0-0--0---0-0-0--|--2----2-----2--2---2-2-0--|--0~----|
 C|--0----0---0-0--0---0---0--|--0----0--------0-------0--|--0----0--------0---0-0-0--|--0~----|
 G|--0----0--------0---0---0--|--x----x-------------------|--x------------------------|--x-----|
 C|--0----0-------------------|--5----5-------------------|--4------------------------|--5~----|

 


 


 (Guitar 2 - Clean)


 

 
 D|--10---------------10------|---------------------------|--10---------------10------|--------|
 A|--10-----------10------10--|--8-------------7----------|--10-----------10------10--|--8~----|
 F|---------------------------|---------------------------|---------------------------|--------|
 C|---------------------------|---------------------------|---------------------------|--------|
 G|---------------------------|---------------------------|---------------------------|--------|
 C|---------------------------|---------------------------|---------------------------|--------|

 


 


 [Cborus] 


 


 "Stop time; Your hand in mine; Bring me closer as it all gets ripped away..."


 (Guitar 1 - Distortion)


 

 
 D|--------------------------|--------------------------|--------------------------|--------------------------|
 A|--5--5--5--5--5--5--5--5--|--------------------------|--------------------------|--------------------------|
 F|--7--7--7--7--7--7--7--7--|--4--4--4--4--4--4--4--4--|--------------------------|--------------------------|
 C|--0--0--0--0--0--0--0--0--|--5--5--5--5--4--4--4--4--|--7--7--7--7--7--7--7--7--|--5--5--5--5--5--5--5--5--|
 G|--0--0--0--0--0--0--0--0--|--2--2--2--2--2--2--2--2--|--5--5--5--5--5--5--5--5--|--5--5--5--5--5--5--5--5--|
 C|--0--0--0--0--0--0--0--0--|--2--2--2--2--2--2--2--2--|--4--4--4--4--4--4--4--4--|--5--5--5--5--5--5--5--5--|

 


 


 (Guitar 2 - Distortion)


 

 
 D|--------------------------|--------------------------|--------------------------|--------------------------|
 A|--10-10-10-10-10-10-10-10-|--8--8--8--8--7--7--7--7--|--10-10-10-10-10-10-10-10-|--8--8--8--8--8--8--8--8--|
 F|---x--x--x--x--x--x--x--x-|--x--x--x--x--x--x--x--x--|---x--x--x--x--x--x--x--x-|--x--x--x--x--x--x--x--x--|
 C|---7--7--7--7--7--7--7--7-|--5--5--5--5--4--4--4--4--|---7--7--7--7--7--7--7--7-|--5--5--5--5--5--5--5--5--|
 G|--------------------------|--------------------------|--------------------------|--------------------------|
 C|--------------------------|--------------------------|--------------------------|--------------------------|

 


 


 (Guitar 3 - Distortion w/ Delay)


 

 
 D|--------------------------|--------------------------|--------------------------|--------------------------|
 A|--------------------------|--------------------------|--------------------------|--------------------------|
 F|--------------------------|--------------------------|--------------------------|-------------7/12-12-11~--|
 C|--------------------------|--------------------------|--------------------------|--------------------------|
 G|--------------------------|--------------------------|--------------------------|--------------------------|
 C|--------------------------|--------------------------|--------------------------|--------------------------|

 


 


 (Guitar 4 - Distortion w/ Delay)


 

 
 D|--------------------------|--------------------------|--------------------------|--------------------------|
 A|--------------------------|--------------------------|--------------------------|------------15/20-20-19~--|
 F|--------------------------|--------------------------|--------------------------|--------------------------|
 C|--------------------------|--------------------------|--------------------------|--------------------------|
 G|--------------------------|--------------------------|--------------------------|--------------------------|
 C|--------------------------|--------------------------|--------------------------|--------------------------|

 


 


 "And I say goodbye to the clearest eyes; I won't be with you, but I won't be far away..."


 (Guitar 1 - Distortion)


 

 
 D|--------------------------|--------------------------|--------------------------|--------------------------|
 A|--5--5--5--5--5--5--5--5--|--------------------------|--------------------------|--------------------------|
 F|--7--7--7--7--7--7--7--7--|--4--4--4--4--4--4--4--4--|--------------------------|--------------------------|
 C|--0--0--0--0--0--0--0--0--|--5--5--5--5--4--4--4--4--|--7--7--7--7--7--7--7--7--|--5--5--5--5--5--5--5--5--|
 G|--0--0--0--0--0--0--0--0--|--2--2--2--2--2--2--2--2--|--5--5--5--5--5--5--5--5--|--5--5--5--5--5--5--5--5--|
 C|--0--0--0--0--0--0--0--0--|--2--2--2--2--2--2--2--2--|--4--4--4--4--4--4--4--4--|--5--5--5--5--5--5--5--5--|

 


 


 (Guitar 2 - Distortion)


 

 
 D|--------------------------|--------------------------|--------------------------|--------------------------|
 A|--10-10-10-10-10-10-10-10-|--8--8--8--8--7--7--7--7--|--10-10-10-10-10-10-10-10-|--8--8--8--8--8--8--8--8--|
 F|---x--x--x--x--x--x--x--x-|--x--x--x--x--x--x--x--x--|---x--x--x--x--x--x--x--x-|--x--x--x--x--x--x--x--x--|
 C|---7--7--7--7--7--7--7--7-|--5--5--5--5--4--4--4--4--|---7--7--7--7--7--7--7--7-|--5--5--5--5--5--5--5--5--|
 G|--------------------------|--------------------------|--------------------------|--------------------------|
 C|--------------------------|--------------------------|--------------------------|--------------------------|

 


 


 (Guitar 3 - Distortion w/ Delay off)


 

 
 D|--------------------------|--------------------------|--------------------------|--------------------------|
 A|--------------------------|--------------------------|--------------------------|--------------------------|
 F|--------------------------|--------------------------|--------------------------|--------------------6-7~--|
 C|--------------------------|--------------------------|--------------------------|--------------------------|
 G|--------------------------|--------------------------|--------------------------|--------------------------|
 C|--------------------------|--------------------------|--------------------------|--------------------------|

 


 


 (Guitar 4 - Distortion w/ Delay off)


 

 
 D|--------------------------|--------------------------|--------------------------|--------------------------|
 A|--------------------------|--------------------------|--------------------------|------------------14-15~--|
 F|--------------------------|--------------------------|--------------------------|--------------------------|
 C|--------------------------|--------------------------|--------------------------|--------------------------|
 G|--------------------------|--------------------------|--------------------------|--------------------------|
 C|--------------------------|--------------------------|--------------------------|--------------------------|

 


 


 [Interlude] 


 


 "This is goodbye..."


 (Guitar 1 - Distortion)*Play 2 times*


 

 
 D|--------------------------|--------------------------|--------------------------|--------------------------|
 A|--5--5--5--5--5--5--5--5--|--------------------------|--------------------------|--------------------------|
 F|--7--7--7--7--7--7--7--7--|--4--4--4--4--4--4--4--4--|--------------------------|--------------------------|
 C|--0--0--0--0--0--0--0--0--|--5--5--5--5--5--5--5--5--|--7--7--7--7--7--7--7--7--|--5--5--5--5--5--5--5--5--|
 G|--0--0--0--0--0--0--0--0--|--2--2--2--2--2--2--2--2--|--5--5--5--5--5--5--5--5--|--5--5--5--5--5--5--5--5--|
 C|--0--0--0--0--0--0--0--0--|--2--2--2--2--2--2--2--2--|--4--4--4--4--4--4--4--4--|--5--5--5--5--5--5--5--5--|

 


 


 (Guitar 3 - Distortion)*Play 2 times*


 

 
 D|--17-17------17-17-----------------14-14------|--17-17------17-17-----------------14-----------|
 A|--------15~--------15~--14-15-15~--------15~--|--------15~--------15~--14-15-15~-----15-15~----|
 F|----------------------------------------------|------------------------------------------------|
 C|----------------------------------------------|------------------------------------------------|
 G|----------------------------------------------|------------------------------------------------|
 C|----------------------------------------------|------------------------------------------------|
 D|--17-17------17-17----------------14-14------|--17-17------17-17-----------------------17/19--|
 A||-------15~--------15~--14-15-15~-------15~--|--------15~--------15~--14-15-15~--14/15--------|
 F|---------------------------------------------|------------------------------------------------|
 C|---------------------------------------------|------------------------------------------------|
 G|---------------------------------------------|------------------------------------------------|
 C|---------------------------------------------|------------------------------------------------|

 


 


 (Guitar 4 - Distortion)*Play 2 times*


 

 
 D|---------------------------------------|----------------------------------------|
 A|--10-10------10-10-------------7-7-----|--10-10-----10-10-------------7---------|
 F|--------7~---------7~--6-7-7~------7~--|--------7~--------7~--6-7-7~----7-7~----|
 C|---------------------------------------|----------------------------------------|
 G|---------------------------------------|----------------------------------------|
 C|---------------------------------------|----------------------------------------|
 D|---------------------------------------|-------------------------------------------|
 A|--10-10------10-10-------------7-7-----|--10-10-----10-10-----------------10/12----|
 F|--------7~---------7~--6-7-7~------7~--|--------7~--------7~--6-7-7~--6/7----------|
 C|---------------------------------------|-------------------------------------------|
 G|---------------------------------------|-------------------------------------------|
 C|---------------------------------------|-------------------------------------------|

 


 


 [Outro] 


 


 "The street is empty tonight..."


 (Guitar 1 - Distortion)


 

 
 D|--5~--------------------------------------|-----------------------------------------------|
 A|--5~--------------------------------------|-----------------------------------------------|
 F|--7~--------------------------------------|-----------------------------------------------|
 C|--0~--------------------------------------|-----------------------------------------------|
 G|--0~--------------------------------------|-----------------------------------------------|
 C|--0~--------------------------------------|-----------------------------------------------|

 


 


 (Guitar 2 - Clean w/ Delay)*Play 4 times*


 

 
 D|-------------------------------------------|-----------------------------------------|
 A|-------------------------------------------|-----------------------------------------|
 F|--11-11-7-7-11-11-7-7-11-11-7-7-11-11-7-7--|--9-9-7-7-7-9-7-7-11-11-7-7-11-11-7-7----|
 C|---0--0-0-0--0--0-0-0--0--0-0-0--0--0-0-0--|--0-0-0-0-0-0-0-0--0--0-0-0--0--0-0-0----|
 G|-------------------------------------------|-----------------------------------------|
 C|-------------------------------------------|-----------------------------------------|
 PM |-------------------------------------------------------------------------------| 


Important: The song above is NOT stored on the Chordie server. The original song is hosted at www.azchords.com. Chordie works as a search engine and provides on-the-fly formatting. Chordie does not index songs against artists'/composers' will. To remove this song please click here.

This song is displayed as text-only. Transposing and tuning is only available for chordpro-songs.
Rate #1 of 1 versions

Jango Player

Login - add to songbook

SHARE PAGE  



You need to log in to post comments