Guitar Tabs, Chords and Lyrics
Server problems seems to be fixed. Chordie has been experiencing problems with songs disappearing. These issues now seems to be fixed, but still verifying the fix. If you find anything strange, please email admin@chordie.com.


Got Yours   Yellowcard

 
 D||----------------------------------------------------------------------------------|
 A||----------------------------------------------------------------------------------|
 F||--12----12-----12-12-----12-12-----12-12---10----10-----10-10----10-10----10-10---|
 C||--10----10-----10-10-----10-10-----10-10---10----10-----10-10----10-10----10-10---|
 G||--8-----8------8--8------8--8------8--8----8-----8------8--8-----8--8-----8--8----|
 C||-----------0-0-------0-0-------0-0-------0----------0-0------0-0------0-0------0--|
 D||---------------------------------------------------------------------------------|
 A||---------------------------------------------------------------------------------|
 F||--12----12-----12-12-----12-12-----12-12---10----10-----10-10----10-10----10-10--|
 C||--10----10-----10-10-----10-10-----10-10---10----10-----10-10----10-10----10-10--|
 G||--8-----8------8--8------8--8------8--8----8-----8------8--8-----8--8-----8--8---|
 C||-----------0-0-------0-0-------0-0-------0----------0-0------0-0------0-0--------|

 


 


 


 [Pre-Verse] 


 Guitar 1/2:


 

 
 D||----------------------------------------------------------------------------------|
 A||----------------------------------------------------------------------------------|
 F||--12----12-----12-12-----12-12-----12-12---10----10-----10-10----10-10----10-10---|
 C||--10----10-----10-10-----10-10-----10-10---10----10-----10-10----10-10----10-10---|
 G||--8-----8------8--8------8--8------8--8----8-----8------8--8-----8--8-----8--8----|
 C||-----------0-0-------0-0-------0-0-------0----------0-0------0-0------0-0------0--|
 D||----------------------------------------------------------------------------------|
 A||----------------------------------------------------------------------------------|
 F||--12----12-----12-12-----12-12-----12-12---10----10-----10-10---------------------|
 C||--10----10-----10-10-----10-10-----10-10---10----10-----10-10---------------------|
 G||--8-----8------8--8------8--8------8--8----8-----8------8--8----------------------|
 C||-----------0-0-------0-0-------0-0-------0----------0-0------0-0-5-5-5-5-7-7-7-7--|

 


 


 


 [Verse] 


 Guitar 1/2:


 

 
 D||----------------------------------------------------------------------|
 A||----------------------------------------------------------------------|
 F||----------------------------------------------------------------------|
 C||--8-8-8-8-8-8-8-8-8-8-8-8-8-8-8-8-5-5-5-5-5-3-3-3-5-5-5-5-5-10-10-10--| x4
 G||--8-8-8-8-8-8-8-8-8-8-8-8-8-8-8-8-5-5-5-5-5-3-3-3-5-5-5-5-5-10-10-10--|
 C||--8-8-8-8-8-8-8-8-8-8-8-8-8-8-8-8-5-5-5-5-5-3-3-3-5-5-5-5-5-10-10-10--|

 


 . . . . . . . . . . . . . . . . . . . . . . . . . .


 


 


 [Pre-Cborus] 


 Guitar 1/2:


 

 
 D||----------------------------------------------------------------------------|
 A||----------------------------------------------------------------------------|
 F||--------10/12~----12b~---5~---7~-------------10/12~----12b~--------5-5-5-5--|
 C||--8-8-8-x-/x------x------x----x--------8-8-8-x-/x------x------5~---x-x-x-x--|
 G||--x-x-x-8-/10~----10b~---3~---5~-------x-x-x-8-/10~----10b~---x----3-3-3-3--|
 C||--8-8-8----------------------------0-0-8-8-8------------------5~------------|
 D||------------------------------------------------------------------------|
 A||------------------------------------------------------------------------|
 F||--------10/12~----12b~---5~---7~-------------10/12~----12b~--------5-5--|
 C||--8-8-8-x-/x------x------x----x--------8-8-8-x-/x------x------5~---x-x--|
 G||--x-x-x-8-/10~----10b~---3~---5~-------x-x-x-8-/10~----10b~---x----3-3--|
 C||--8-8-8----------------------------0-0-8-8-8------------------5~--------|

 


 


 


 [Cborus] 


 Guitar 1/2:


 

 
 D||----------------------------------------------------------------------------------|
 A||----------------------------------------------------------------------------------|
 F||--12----12-----12-12-----12-12-----12-12---10----10-----10-10----10-10----10-10---|
 C||--10----10-----10-10-----10-10-----10-10---10----10-----10-10----10-10----10-10---|
 G||--8-----8------8--8------8--8------8--8----8-----8------8--8-----8--8-----8--8----|
 C||-----------0-0-------0-0-------0-0-------0----------0-0------0-0------0-0------0--|
 D||--------------------------------------------------------------------------------|
 A||--------------------------------------------------------------------------------|
 F||--12----12-----12-12-----12-12-----12-12---10----10-----10-10-------------------|
 C||--10----10-----10-10-----10-10-----10-10---10----10-----10-10-------------------|
 G||--8-----8------8--8------8--8------8--8----8-----8------8--8--------------------|
 C||-----------0-0-------0-0-------0-0-------0----------0-0------0-0-5-5-5-5-7-7-0--|
 D||----------------------------------------------------------------------------------|
 A||----------------------------------------------------------------------------------|
 F||--12----12-----12-12-----12-12-----12-12---10----10-----10-10----10-10----10-10---|
 C||--10----10-----10-10-----10-10-----10-10---10----10-----10-10----10-10----10-10---|
 G||--8-----8------8--8------8--8------8--8----8-----8------8--8-----8--8-----8--8----|
 C||-----------0-0-------0-0-------0-0-------0----------0-0------0-0------0-0------0--|
 D||----------------------------------------------------------------------------------|
 A||----------------------------------------------------------------------------------|
 F||--12----12-----12-12-----12-12-----12-12---10----10-----10-10---------------------|
 C||--10----10-----10-10-----10-10-----10-10---10----10-----10-10---------------------|
 G||--8-----8------8--8------8--8------8--8----8-----8------8--8----------------------|
 C||-----------0-0-------0-0-------0-0-------0----------0-0------0-0-5-5-5-5-7-7-7-7--|

 


 


 


 [Verse] 


 Guitar 1/2:


 

 
 D||----------------------------------------------------------------------|
 A||----------------------------------------------------------------------|
 F||----------------------------------------------------------------------|
 C||--8-8-8-8-8-8-8-8-8-8-8-8-8-8-8-8-5-5-5-5-5-3-3-3-5-5-5-5-5-10-10-10--| x3
 G||--8-8-8-8-8-8-8-8-8-8-8-8-8-8-8-8-5-5-5-5-5-3-3-3-5-5-5-5-5-10-10-10--|
 C||--8-8-8-8-8-8-8-8-8-8-8-8-8-8-8-8-5-5-5-5-5-3-3-3-5-5-5-5-5-10-10-10--|

 


 . . . . . . . . . . . . . . . . . . . . . . . . . .


 


 

 
 D||-------------------------------------------------------------------|
 A||-------------------------------------------------------------------|
 F||-------------------------------------------------------------------|
 C||--8-8-8-8-8-8-8-8-8-8-8-8-8-8-8-8-5-5-5-3-3-3-5-0-2-2-2-2-2-2//\\--|
 G||--8-8-8-8-8-8-8-8-8-8-8-8-8-8-8-8-5-5-5-3-3-3-5-0-3-3-3-3-3-2//\\--|
 C||--8-8-8-8-8-8-8-8-8-8-8-8-8-8-8-8-5-5-5-3-3-3-5-0-2-2-2-2-2-2//\\--|

 


 . . . . . . . . . . . . . . . . . . . . . . . . . .


 


 


 [Pre-Cborus] 


 Guitar 1/2:


 

 
 D||------------------------------------------------------------------------|
 A||------------------------------------------------------------------------|
 F||--------10/12~----12b~---5~---7~-------------10/12~----12b~--------5-5--|
 C||--8-8-8-x-/x------x------x----x--------8-8-8-x-/x------x------5~---x-x--|
 G||--x-x-x-8-/10~----10b~---3~---5~-------x-x-x-8-/10~----10b~---x----3-3--|
 C||--8-8-8----------------------------0-0-8-8-8------------------5~--------|

 


 


 


 [Cborus] 


 Guitar 1/2:


 

 
 D||----------------------------------------------------------------------------------|
 A||----------------------------------------------------------------------------------|
 F||--12----12-----12-12-----12-12-----12-12---10----10-----10-10----10-10----10-10---|
 C||--10----10-----10-10-----10-10-----10-10---10----10-----10-10----10-10----10-10---|
 G||--8-----8------8--8------8--8------8--8----8-----8------8--8-----8--8-----8--8----|
 C||-----------0-0-------0-0-------0-0-------0----------0-0------0-0------0-0------0--|
 D||--------------------------------------------------------------------------------|
 A||--------------------------------------------------------------------------------|
 F||--12----12-----12-12-----12-12-----12-12---10----10-----10-10-------------------|
 C||--10----10-----10-10-----10-10-----10-10---10----10-----10-10-------------------| x2
 G||--8-----8------8--8------8--8------8--8----8-----8------8--8--------------------|
 C||-----------0-0-------0-0-------0-0-------0----------0-0------0-0-5-5-5-5-7-7-0--|

 


 


 


 [Bridge] 


 Guitar 1:


 

 
 D||-----------------------------------------|------------------------------------------|
 A||-----------------------------------------|------------------------------------------|
 F||--10~------------------------------------|--10~-------------------------------------|
 C||--10~----10~----10~----10~---14~----14~--|--10~----10~----10~----14~----10~----10~--|
 G||--8~-----8~-----8~-----10~---12~----12~--|--8~-----8~-----8~-----12~----8~-----8~---|
 C||---------8~-----8~-----10~---12~----12~--|---------8~-----8~-----12~----8~-----8~---|

 


 


 Guitar 2:


 

 
 D||-----------------------------------------|------------------------------------------|
 A||-----------------------------------------|------------------------------------------|
 F||--10~------------------------------------|--10~-------------------------------------|
 C||--10~----10~----10~----10~---0~----0~----|--10~----10~----10~----14~----10~----10~--|
 G||--8~-----8~-----8~-----10~---0~----0~----|--8~-----8~-----8~-----12~----8~-----8~---|
 C||---------8~-----8~-----10~---0~----0~----|---------8~-----8~-----12~----8~-----8~---|

 


 


 Guitar 1/2:


 

 
 D||---------|
 A||---------|
 F||---------|
 C||---------|
 G||---------|

 


 C||--1//\\--|


 


 Guitar 1:


 

 
 D||-----------------------------------------|------------------------------------------|
 A||-----------------------------------------|------------------------------------------|
 F||--10~------------------------------------|--10~-------------------------------------|
 C||--10~----10~----10~----10~---14~----14~--|--10~----10~----10~----14~----10~----10~--| x2
 G||--8~-----8~-----8~-----10~---12~----12~--|--8~-----8~-----8~-----12~----8~-----8~---|
 C||---------8~-----8~-----10~---12~----12~--|---------8~-----8~-----12~----8~-----8~---|

 


 


 Guitar 2:


 

 
 D||-----------------------------------------|------------------------------------------|
 A||-----------------------------------------|------------------------------------------|
 F||--10~------------------------------------|--10~-------------------------------------|
 C||--10~----10~----10~----10~---0~----0~----|--10~----10~----10~----14~----10~----10~--| x2
 G||--8~-----8~-----8~-----10~---0~----0~----|--8~-----8~-----8~-----12~----8~-----8~---|
 C||---------8~-----8~-----10~---0~----0~----|---------8~-----8~-----12~----8~-----8~---|

 


 


 


 [Pre-Cborus] 


 Guitar 1/2:


 

 
 D||---------------------------------------------------------------------------------|
 A||---------------------------------------------------------------------------------|
 F||--12----12-----12-12-----12-12-----12-12---10----10-----10-10----10-10----10-10--|
 C||--10----10-----10-10-----10-10-----10-10---10----10-----10-10----10-10----10-10--|
 G||--8-----8------8--8------8--8------8--8----8-----8------8--8-----8--8-----8--8---|
 C||-----------0-0-------0-0-------0-0-------0----------0-0------0-0------0-0--------|

 


 


 


 [Cborus] 


 Guitar 1/2:


 

 
 D||----------------------------------------------------------------------------------|
 A||----------------------------------------------------------------------------------|
 F||--12----12-----12-12-----12-12-----12-12---10----10-----10-10----10-10----10-10---|
 C||--10----10-----10-10-----10-10-----10-10---10----10-----10-10----10-10----10-10---|
 G||--8-----8------8--8------8--8------8--8----8-----8------8--8-----8--8-----8--8----|
 C||-----------0-0-------0-0-------0-0-------0----------0-0------0-0------0-0------0--|
 D||--------------------------------------------------------------------------------|
 A||--------------------------------------------------------------------------------|
 F||--12----12-----12-12-----12-12-----12-12---10----10-----10-10-------------------|
 C||--10----10-----10-10-----10-10-----10-10---10----10-----10-10-------------------| x2
 G||--8-----8------8--8------8--8------8--8----8-----8------8--8--------------------|
 C||-----------0-0-------0-0-------0-0-------0----------0-0------0-0-5-5-5-5-7-7-0--|

 


 


 


 [Outro] 


 Guitar 1/2:


 

 
 D||----------------------------------------------------------------------------------|
 A||----------------------------------------------------------------------------------|
 F||--12----12-----12-12-----12-12-----12-12---10----10-----10-10----10-10----10-10---|
 C||--10----10-----10-10-----10-10-----10-10---10----10-----10-10----10-10----10-10---|
 G||--8-----8------8--8------8--8------8--8----8-----8------8--8-----8--8-----8--8----|
 C||-----------0-0-------0-0-------0-0-------0----------0-0------0-0------0-0------0--|
 D||--------------------------------------------------------------------------------|
 A||--------------------------------------------------------------------------------|
 F||--12----12-----12-12-----12-12-----12-12---10----10-----10-10-------------------|
 C||--10----10-----10-10-----10-10-----10-10---10----10-----10-10-------------------|
 G||--8-----8------8--8------8--8------8--8----8-----8------8--8--------------------|
 C||-----------0-0-------0-0-------0-0-------0----------0-0------0-0-5-5-5-5-7-7-0--|
 D||----------------------------------------------------------------------------------|
 A||----------------------------------------------------------------------------------|
 F||--12----12-----12-12-----12-12-----12-12---10----10-----10-10----10-10----10-10---|
 C||--10----10-----10-10-----10-10-----10-10---10----10-----10-10----10-10----10-10---|
 G||--8-----8------8--8------8--8------8--8----8-----8------8--8-----8--8-----8--8----|
 C||-----------0-0-------0-0-------0-0-------0----------0-0------0-0------0-0------0--|
 D||----------------------------------------------------------------------------------|
 A||----------------------------------------------------------------------------------|
 F||--12----12-----12-12-----12-12-----12-12---10----10-----10-10---------------------|
 C||--10----10-----10-10-----10-10-----10-10---10----10-----10-10---------------------|
 G||--8-----8------8--8------8--8------8--8----8-----8------8--8----------------------|
 C||-----------0-0-------0-0-------0-0-------0----------0-0------0-0-5-5-5-5-7-7-7-7--|


Important: The song above is NOT stored on the Chordie server. The original song is hosted at www.azchords.com. Chordie works as a search engine and provides on-the-fly formatting. Chordie does not index songs against artists'/composers' will. To remove this song please click here.

This song is displayed as text-only. Transposing and tuning is only available for chordpro-songs.
Rate #1 of 1 versions

Jango Player

Login - add to songbook

SHARE PAGE  



You need to log in to post comments