Guitar Tabs, Chords and Lyrics
Server problems seems to be fixed. Chordie has been experiencing problems with songs disappearing. These issues now seems to be fixed, but still verifying the fix. If you find anything strange, please email admin@chordie.com.


Sing for Me  Yellowcard

[G] [Em7] [Cadd9] [Dsus2]  
 
 e|---3---------3-----------3------------3---|
 B|---3---------3-----------3------------3---|
 G|---0---------0-----------0------------2---|
 D|---0---------2-----------2------------0---|
 A|---2---------2-----------3------------0---|
 E|---3---------0-----------0------------2---|

Intro (0:00-0:11)
[G] [Em7] [Cadd9] [Dsus2]  
Verse 1 (0:11-0:37) Both guitars play this part
Look at [G]me
And listen [Em7]close
So I can t[Cadd9]ell you how I feel before I [Dsus2]go
Just a [G]year
It's not much [Em7]time
For me to [Cadd9]show you I am proud that you are [Dsus2]mine
Pre-Chorus 1 (0:37-0:49)
Lead Guitar (Play through whole pre-chorus)
In this riff, play the actual frets numbered, like the capo isn't there.
 
 e----------------------------10--------------------------------13-12-----|
 B----------13----------------------13-------------13----------------13---|
 G-10h12p10--------10h12p10-----12-------12-10h12p10-----10-12------------|
 D------------------------------------------------------------------------|
 A------------------------------------------------------------------------|
 E------------------------------------------------------------------------|

Rhythm Guitar
[G]I wish I had [Em7]known
The f[Cadd9]uture in my [Dsus2]heart
Was just about to start
Chorus 1 (0:49-1:14)
Lead Guitar (Play through whole chorus)
In this riff, play the actual frets numbered, like the capo isn't there.
 
 e-----------------------------------------|
 B----8----8----8----8----8----8----8----8-|
 G----9----9----9----9----9----9----9----9-|
 D-10---10---10---10---10---10---10---10---|
 A-----------------------------------------|
 E-----------------------------------------|

Rhythm Guitar
[G]Say tomorrow
[Em7]I can't follow you there[Cadd9]
Just close your eyes
And [Dsus2]Sing For Me
[G]I will hear you
[Em7]Always near you[Cadd9]
And I'll give you the words
Just [Dsus2]Sing For Me
Verse 2 (1:14-1:39) Both guitars play this part
Every [G]lock
On every [Em7]door
I put them [Cadd9]there to try to hide you from the w[Dsus2]orld
And you [G]kicked
Yeah, you [Em7]screamed
You never [Cadd9]understood, you're everything to [Dsus2]me
Pre-Chorus 2 (1:39-1:51)
Lead Guitar (Play through whole pre-chorus)
In this riff, play the actual frets numbered, like the capo isn't there.
 
 e----------------------------10--------------------------------13-12-----|
 B----------13----------------------13-------------13----------------13---|
 G-10h12p10--------10h12p10-----12------12-10h12p10-----10-12-------------|
 D------------------------------------------------------------------------|
 A------------------------------------------------------------------------|
 E------------------------------------------------------------------------|

Rhythm Guitar
[G]I just hope you [Em7]know
The [Cadd9]future in your [Dsus2]heart
Is just about to start
Chorus 2 (1:51-2:16)
Lead Guitar (Play through whole chorus)
In this riff, play the actual frets numbered, like the capo isn't there.
 
 e-----------------------------------------|
 B----8----8----8----8----8----8----8----8-|
 G----9----9----9----9----9----9----9----9-|
 D-10---10---10---10---10---10---10---10---|
 A-----------------------------------------|
 E-----------------------------------------|

Rhythm Guitar
[G]Say tomorrow
[Em7]I can't follow you there[Cadd9]
Just close your eyes
And [Dsus2]Sing For Me
[G]I will hear you
[Em7]Always near you[Cadd9]
And I'll give you the words
Just [Dsus2]Sing For Me
Bridge Part 1 (2:16-2:40)
[G]No looking back when I am [Em7]gone (Sing For Me)
[Cadd9]Follow your heart, it's never [Dsus2]wrong (Sing For Me)
[G]No looking back when I am [Em7]gone (Sing For Me)
[Cadd9]Don't second guess the note [Dsus2]you're on
Bridge Part 2 (2:40-2:53) Both guitars play this part
Out of [G]time
All out of [Em7]fight
You are the [Cadd9]only thing in life that I got [Dsus2]right
Coda (2:53-3:48)
Lead Guitar (Play through whole coda)
In this riff, play the actual frets numbered, like the capo isn't there.
 
 e-----------------------------------------|
 B----8----8----8----8----8----8----8----8-|
 G----9----9----9----9----9----9----9----9-|
 D-10---10---10---10---10---10---10---10---|
 A-----------------------------------------|
 E-----------------------------------------|

Rhythm Guitar
[G]Say tomorrow
[Em7]I can't follow you there[Cadd9]
Just close your eyes
And [Dsus2]Sing For Me
[G]I will hear you
[Em7]Always near you[Cadd9]
And I'll give you the words
Just [Dsus2]Sing For Me
[G] [Em7]  
[Cadd9]Just close your eyes, and [Dsus2]Sing For Me
[G] [Em7]  
[Cadd9]Just close your eyes, and [Dsus2]Sing For Me

Important: The song above is NOT stored on the Chordie server. The original song is hosted at www.azchords.com. Chordie works as a search engine and provides on-the-fly formatting. Chordie does not index songs against artists'/composers' will. To remove this song please click here.

Text color:
Chord color:
Chord grids: 
Font size:    
Page size: 

Cadd9 Dsus2 Em7 G
Rate #1 of 10 versions

Jango Player

Login - add to songbook

SHARE PAGE  



You need to log in to post comments