Guitar Tabs, Chords and Lyrics
Server problems seems to be fixed. Chordie has been experiencing problems with songs disappearing. These issues now seems to be fixed, but still verifying the fix. If you find anything strange, please email admin@chordie.com.


Words, Hands, Hearts  Yellowcard

This is my first chord-tab making, I sounds perfect
Yellowcard kicking asses again buddy!
Hope youâ??ll like it
 
 e|-3---5--0--6---2---5-------7-------3-------3-----2---0--------------------|
 B|-3---5--1--6---3---5-------7-------3-------3-----3---0--------------------|
 G|-4---6--0--7---2---7-------9-------5-------2-----4---0--------------------|
 D|-5---7--2--8---0---7-------9-------5-------0-----4---2--------------------|
 A|-5---7--3--8---x---5-------7-------3-------x-----2---2--------------------|
 E|-3---5--0--6---x---5-------7-------3-------x-----2---0--------------------| 

[G] [A] [C] [A#] [D] [Dsus2] [Esus2] [Csus2] [Dsus4] [Bm] [Em] 
Csus2 G D (changing to Dsus4)
The whole world was sleeping and i was there
Csus2 G D (changing to Dsus4)
you could just sense this feeling in the air
like n[Em]o one's words were g[G]ood enough
to d[Bm]efine what we f[C]ear
and n[Em]o one's words were str[G]ong enough
to f[Bm]ix what happened h[C]ere
[G] lead o[D]n to save [Em]me lead us[G] all there
 
 e|-3--3--3---5---6-6-6---5-5-5----7-7-------------|
 B|-3--3--3---5---6-6-6---5-5-5----7-7-------------|
 G|-4--4--4---6---7-7-7---7-7-7----9-9-------------|
 D|-5--5--5---7---8-8-8---7-7-7----9-9-------------|
 A|-5--5--5---7---8-8-8---5-5-5----7-7-------------|
 E|-3--3--3---5---6-6-6---5-5-5----7-7-------------| 

[G] [A] find[A#] me [Dsus2]some ans[Esus2]wers one nation beware
[G]can't te[D]ll the dif[Em]ference be[G]tween myth and man
 
 e|-3--3--3---5---6-6-6---5-5-5----7-7-------------|
 B|-3--3--3---5---6-6-6---5-5-5----7-7-------------|
 G|-4--4--4---6---7-7-7---7-7-7----9-9-------------|
 D|-5--5--5---7---8-8-8---7-7-7----9-9-------------|
 A|-5--5--5---7---8-8-8---5-5-5----7-7-------------|
 E|-3--3--3---5---6-6-6---5-5-5----7-7-------------| 

[G] [A] [A#]or wha[Dsus2]t's nece[Esus2]ssary or where i should s[G]tand
Csus2 G D (changing to Dsus4)
The whole world is different now men have died
Csus2 G D (changing to Dsus4)
you could just sense this feeling in our eyes
like n[Em]o one's hands are b[G]ig enough
to h[Bm]old on to this f[C]ear
and n[Em]o one's hands are str[G]ong enough
to f[Bm]ix what happened h[C]ere
[G] lead [D]on to save [Em]me le[G]ad us all there
 
 e|-3--3--3---5---6-6-6---5-5-5----7-7-------------|
 B|-3--3--3---5---6-6-6---5-5-5----7-7-------------|
 G|-4--4--4---6---7-7-7---7-7-7----9-9-------------|
 D|-5--5--5---7---8-8-8---7-7-7----9-9-------------|
 A|-5--5--5---7---8-8-8---5-5-5----7-7-------------|
 E|-3--3--3---5---6-6-6---5-5-5----7-7-------------| 

[G] [A] f[A#]ind me[Dsus2] some a[Esus2]nswers one nation beware
[G]can't t[D]ell the dif[Em]feren[G]ce between myth and man
 
 e|-3--3--3---5---6-6-6---5-5-5----7-7-------------|
 B|-3--3--3---5---6-6-6---5-5-5----7-7-------------|
 G|-4--4--4---6---7-7-7---7-7-7----9-9-------------|
 D|-5--5--5---7---8-8-8---7-7-7----9-9-------------|
 A|-5--5--5---7---8-8-8---5-5-5----7-7-------------|
 E|-3--3--3---5---6-6-6---5-5-5----7-7-------------| 

[G] [A] [A#]or wha[Dsus2]t's nece[Esus2]ssary or where I should st[G]and
[D] So do we dare n[Bm]ow
raise our voices l[G]oud
we're searching for s[A#]omething that cannot be[D] found
i hear open m[Bm]ouths
and i see open h[G]ands
but the blinded and s[A#]ilent i can't und[D]erstand[Bm] [G] [A#] [D] [Bm] [G] [A#]
Csus2 G D (changing to Dsus4)
The whole world is watching with one blank stare
Csus2 G D (changing to Dsus4)
I could just sense this feeling of ill repair
like n[Em]o one's heart is fu[G]ll enough
to k[Bm]eep away this f[C]ear
and n[Em]o one's heart is str[G]ong enough
to f[Bm]ix what happened h[C]ere
[G] lead o[D]n to save m[Em]e lea[G]d us all there
 
 e|-3--3--3---5---6-6-6---5-5-5----7-7-------------|
 B|-3--3--3---5---6-6-6---5-5-5----7-7-------------|
 G|-4--4--4---6---7-7-7---7-7-7----9-9-------------|
 D|-5--5--5---7---8-8-8---7-7-7----9-9-------------|
 A|-5--5--5---7---8-8-8---5-5-5----7-7-------------|
 E|-3--3--3---5---6-6-6---5-5-5----7-7-------------| 

[G] [A] [A#]find m[Dsus2]e some[Esus2] answers it's time that you shared
[G]can't te[D]ll the diff[Em]erence bet[G]ween myth and man
 
 e|-3--3--3---5---6-6-6---5-5-5----7-7-------------|
 B|-3--3--3---5---6-6-6---5-5-5----7-7-------------|
 G|-4--4--4---6---7-7-7---7-7-7----9-9-------------|
 D|-5--5--5---7---8-8-8---7-7-7----9-9-------------|
 A|-5--5--5---7---8-8-8---5-5-5----7-7-------------|
 E|-3--3--3---5---6-6-6---5-5-5----7-7-------------| 

[G] [A] [A#]or wha[Dsus2]t's nece[Esus2]ssary or where I should st[G]and
[D] So do we dare [Bm]now
raise our voices l[G]oud
we're searching for s[A#]omething that cannot be [D]found
i hear open m[Bm]ouths
and i see open h[G]ands
but the blinded and s[A#]ilent i can't unders[Csus2]tand[G] [D]

Important: The song above is NOT stored on the Chordie server. The original song is hosted at www.azchords.com. Chordie works as a search engine and provides on-the-fly formatting. Chordie does not index songs against artists'/composers' will. To remove this song please click here.

Text color:
Chord color:
Chord grids: 
Font size:    
Page size: 

A A# Bm C Csus2 D Dsus2 Dsus4 Em Esus2 G
Rate #2 of 8 versions

Login - add to songbook

SHARE PAGE  




You need to log in to post comments