Guitar Tabs, Chords and Lyrics
Major upgrade!! After one year development the new version of Chordie is now online! Please give feedback.


Roundabout  Yes

[Intro] 
[main riff 1] 
 
 e|----------------------------------------------|
 B|----------------------------------------------|
 G|----------------------------------------------|
 D|--2--2--4--5--4--5--4--2----2--2--4--5--4--2--|
 A|--2--2--4--5--4--5--4--2----2--2--4--5--4--2--|
 E|----------------------------------------------|

I'll [G]be the rounda[Em]bout
The words will [G]make you [Em]out 'n' out
I [G]spend the day your [A]way[C] [A]
Call it [Bm]morning driving [A]through the sound and
[G]In and out the valley
[main riff 1] 
The music [Gbm]dance and [A]sing
They make the [Gbm]children really [G]ring
I spend the [Em]day your [A]way[C] [A]
Call it [Bm]morning driving [A]through the sound and
[G]In and out the [F]valley[Em] [D] [C]
[G]In and [C]around the lake
[G]Mountains come out of the [F]sky and they
[Bb]stand [G]there[C]
One [G]mile over [F]we'll be there and we'll see [Bb]you[G]
Ten true summers [Em]we'll be there and laughing [G]too
Twenty four before my love [Em]you'll see I'll be there with you
[main riff 1] 
[Em]I will [G]remember you[Em]
[G]Your silhouette will [Em]charge the view
[G]Of distance [A]atmospher[C]e[A]
Call it [Bm]morning driving [D]through the sound and
[G]Even in the [F]valley[Em] [C] [G]
[G]In and around [A]the lake[G]
[G]Mountains come out of the sky and they
[F]stand there[G] [F] [G]
One mile over [F]we'll be there and we'll see you[G]
Ten true summers we'll be there and [F]laughing [G]too[D]
Twenty [G]four before [F]my love you'll [Em]see I'll be there with you
[Main Riff 2] 
 
 e|-----------------------------------------------------|
 B|-----------------------------------------------------|
 G|-----------------------------------------------------|
 D|-----------------------------------------------------| x2
 A|----------0----2--0-----0---2--0-----0---------------|
 E|-0--2--3-------------3------------3-----2--3--3-2-0--|

[A]Along the drifting cloud
The eagle searching down [G]on the la[Em]nd
[A]Catching the swirling wind
The sailor sees the rim [G]of the la[Em]nd
[A]The eagle's dancing wings
Create as weather spins [G]out of ha[Em]nd
[Main Riff 2] 
[A]Go closer hold the land
Feel partly no more than [G]grains of [Em]sand
[A]We stand to lose all time
A thousand answers by [G]in our ha[Em]nd
[A]Next to your deeper fears
We stand surrounded by [G]a million [Em]years
I'll be the [A]rou[Bm]nda[D]bout
[A]The words [G]will make you [Em]out 'n' out
I'll be the [A]rou[Bm]nda[A]bout
The words [G]will make you [Em]out 'n' [Em]out[Bm] [Em]
[Intro] 
[C]In and [G]around the lake
[Bm]Mountains [Em]come out of the sky and they [Bb]stand there
Twenty [G]four before [F]my love and [Bb]I'll be [Eb]there
[Em]I'll be the [G]rou[C]nda[G]bout
[C]The words will [D]make [C]you [A]out 'n' out
[C]I spend the day [A]your [A]way[C] [A]
Call it [Bm]morning driving [A]through the sound and
[G]In and out the [F]valley[D] [C]
In and [G]around the [C]lake
[G]Mountains come out of the sky and [F]they stand there[G] [F] [G] [F]
One [G]mile over we'll be there and [F]we'll see [G]you
Ten true summers we'll be there and laughing [F]too[G] [C] [F]
Twenty [G]four before my love [Em]you'll see I'll be there with you
[Em]Da la la la da da la
[Outro] 
 
 e|-2--3-2h3p2----0----------------------------0-|
 B|------------3----3-1-0--3-0-1---0----------0--|
 G|------------------------------2---0-2-----1---|
 D|-0---------------------------------------2----|
 A|---------------3--------2---0-----------2-----|
 E|--------------------------------3---2--0------| 


Important: The song above is NOT stored on the Chordie server. The original song is hosted at www.azchords.com. Chordie works as a search engine and provides on-the-fly formatting. Chordie does not index songs against artists'/composers' will. To remove this song please click here.

Text color:
Chord color:
Chord grids: 
Font size:    
Page size: 

A Bb Bm C D Eb Em F G Gbm
Rate #1 of 3 versions

Jango Player

Login - add to songbook

SHARE PAGE  




You need to log in to post comments