Guitar Tabs, Chords and Lyrics
Major upgrade!! After one year development the new version of Chordie is now online! Please give feedback.


TOKYO  YUI

(Live)
<i></i>Hey guys, this is my first tab, and it's as accurate as can be, I'm pretty sure if
it. if I messed up anything or missed a chord, please tell me.
There's one barre chord in this song, and that's Bm. I suggest you practice the D
chord to Bm progression to play this song. Have fun :) ~dj
Standard
No capo
PLEASE READ CHORDS OR IT WON'T SOUND RIGHT!!!!
G [3 2 0 0 3 3]
G5 [3 0 0 0 3 3]
Gsus2 [0 0 0 0 3 3]
Dsus [x 0 0 2 3 3]
D [x 0 0 2 3 2]
Cadd9 [0 3 2 0 3 3]
Csus2 [0 3 0 0 3 3]
C [0 3 2 0 1 0]
Em [0 2 2 0 0 0]
E7 [0 2 0 0 0 0]
Bm#5 [0 2 0 0 3 3]
Bm [2] [2] [4] [4] [3] [2]
Am [x 0 2 2 1 0]
Am7 [x 0 2 0 1 0]
YUI - Tokyo Live at Budokan
Intro
Pick 3rd fret e string, b and then open g
G, Dsus, G, Cadd9 x2
Verse
[G] Sumi nar[D]eta kono hey[Am7]a wo[C]
D[Em]ete yuk[D]u hi ga ki[Cadd9]ta
[G] Atarash[D]ii tabida[Am7]chi ni[C] mad[Em]a toma[D]dotte[Cadd9]ru[Csus2] [Bm#5]
Pre-chorus
E[Am]ki mad[D]e mukau b[G]asu[G5] no [Em]naka
Am D~~~
Tomodachi ni meiru sh*ta
Keep the D chord position, and pick the B string, 3rd fret high e string, then B again.
Guitar break
[G] [Gsus2] [G] [Cadd9]  
 
 E|-------3-------------3----------------3--------------------------------3---------------3--------|
 B|-------3-----------------3-----------------3---------------------------3---------------------3--|
 G|-------0---------0-----------------------------------------------------0---------0--------------|
 D|-------0---------------------------0-------------------------0---------2------------------------|
 A|-------2----------------------0--------------------------2-------------3------------------------|
 E|-------3--------------------------------------------3------------------0------------------------|

[G] [Gsus2] [G] [Gsus2]  
 
 E|---------------3---------------------------------------------------------------3-------|
 B|-------------------3-----------------3----------------------------------------------3--|
 G|--------------------------------------------0----------------------------0-------------|
 D|------------------------------0---------------------------0----------------------------|
 A|--------2----------------0---------------------------2-------3-------------------------|
 E|---3--------------------------------------------3--------------------------------------|

[G] [Gsus2] [G] [Cadd9]  
 
 E|-------------3----------------------3---------------------------3-------------------3----------|
 B|------------------3----------------------3----------------------3---------------------------3--|
 G|----------------------------------------------------------------0----------0-------------------|
 D|------------------------------0-------------------------0-------2------------------------------|
 A|-----------2-------------0-------------------------2------------3------------------------------|
 E|------3---------------------------------------3-----------------0------------------------------|

[G] [Gsus2] [G] [Cadd9]  
 
 E|---------------3-----------------------------------------------------3-------------|
 B|-------------------3-----------------3-------------------------------------3-------|
 G|--------------------------------------------0--------------------------------------|
 D|------------------------------0---------------------------0------------------------|
 A|--------2----------------0---------------------------2--------------------------3--|
 E|---3--------------------------------------------3----------------------------------|

Pre-chorus
[Am]Eki ma[D]de mukau [G]bas[G5]u no[Em] naka
[Am]Tomodachi ni [D]meiru sh*ta
Chorus
Asa no h[C]oomu de d[D]enwa mo [Em]sh*t[Em7]emita
Demo [C]nanka chig[D]au ki ga sh[Em]*ta[Em7]
Furui [C]gitaa wo [D]hitotsu mo[Em]tte kit[Em7]a
Shashi[C]n wa zenb[D]u oiteki[Em]ta[Em7]
Nanika wo [C]tebanash*te[D] sosh*te [Bm]te ni ire[Em]ru
C D (intro x 2) G Dsus G Cadd9 (pick G, E, B for first C)
Sonna kurikaeshi ka na?
Repeat verse (G, D, Am7, C, Em, D, Cadd9)
(G, D, Am7, C, Em, D, Cadd9, Bm#5)
Repeat Pre-chorus (Am, D, G5, G7, Em~, Am, D
Repeat Chorus (C, D, Em, E7) x4
(C, D, Bm, Em) LOOK BELOW
C D G, D (x2), (Mute) D
Machigai darakede ii
Repeat Chorus (C, D, Em, E7) x4
(C, D, Bm, Em, C, D
Outro Cadd9, G, Cadd9, G, Cadd9, G, Cadd9, G, pick Cadd9

Important: The song above is NOT stored on the Chordie server. The original song is hosted at www.azchords.com. Chordie works as a search engine and provides on-the-fly formatting. Chordie does not index songs against artists'/composers' will. To remove this song please click here.

Text color:
Chord color:
Chord grids: 
Font size:    
Page size: 

Am Am7 Bm Bm#5 C Cadd9 Csus2 D Em Em7 G G5 Gsus2
Rate #1 of 3 versions

Jango Player

Login - add to songbook

SHARE PAGE  



You need to log in to post comments