Guitar Tabs, Chords and Lyrics
Update 25:10. 13:00. Site is back up running again. Songbooks are recovered. Woring on getting search back up..


Trop sensible  Zaz

 
 <i></i>-------------------------------------------------------------------------------
 -------------------------------------------------------------------------------

-- Tuning: Standard
[Picking Pattern - Intro] 
1 2 3 4 5 6 7 8 | 1 2 3 4 5 6 7 8 | 1 2 3 4 5 6 7 8 | 1 2 3 4 5 6 7 8 |
 
 E-|---2-x-----2-x---|---0-x-----0-x---|---2-x-------x---|---0-x-----0-x---|
 B-|---3-x-----3-x---|---1-x-----1-x---|---3-x-------x---|---1-x-----1-x---|
 G-|---1-x-----1-x---|---2-x-----2-x---|---1-x-------x---|---2-x-----2-x---|
 D-|-0---x-0-----x-0-|---2-x-----2-x---|-0---x-0-----x---|0--2-x-----2-x---|
 A-|-----x-------x---|-0---x-0-----x-0-|-----x-------x---|-0---x-0-----x-0-|
 E-|-----x-------x---|-----x-------x---|-----x-------x---|-----x-------x---|

[Picking Pattern - Verse] 
1 2 3 4 5 6 7 8 | 1 2 3 4 5 6 7 8 |
 
 E-|---2-x-------x---|---0-x-------x---|
 B-|---3-x-------x---|---1-x-------x---|
 G-|---1-x-------x---|---2-x-------x---|
 D-|-0---x-0-----x-0-|---2-x-------x---|
 A-|-----x-------x---|-0---x-0-----x-0-|
 E-|-----x-------x---|-----x-------x---|

[Intro] 
[Dm] [Am] [Dm] [Am]  
[Cborus] 
[Dm] T'es Trop Sensible c'est vrai
Et[Am] les autres voient pas qui tu es
[Dm] Trop Sensible je sais
Mo[Am]i aussi √?¬ßa a faillit me tuer
[Cborus] 
[Verse] 
Tu t'angoisses tu paniques t'es en crise
Quand tu te prends en plein c√?‚??ur
Sans pouvoir l'exprimer tout de suite
C'est trop fort, √?¬ßa f'rait peur
Solitaire dans ton monde tu chantes aux √?¬©toiles et
c√?¬Ęlines la terre
Tu sens notre m√?¬®re qui gronde
A bout de force mais ne peut plus se taire
Tu sens la souffrance comme une bombe
Le tic-tac, en sourdine
Les puissants qui nous m√?¬®nent √?¬ la tombe
Et se moquent de notre sort en prime
J'aimerais te dire que ce monde livide finira par se r√?¬©veiller,
Mais j'ai bien peur que √?¬ßa ne tienne qu'√?¬ un fil
Mais rassures toi, toi tu seras sauv√?¬©.
[Cborus] (x2)
[Verse] 
Avec ta petite gueule d'ange
Tu nous fais voir des masques color√?¬©s
Tous ces gens qui te croient innocent
Mais toi tu voyages dans l'obscurit√?¬©
Avec ta petite gueule d'ange
Tu laisses croire et ne semble qu'indiquer
Que dans ta t√?¬™te y'a que des fleurs des sourires,
Des papillons et du sucre vanill√?¬©
Je ressens ta souffrance
Je la vois, je l'√?¬©coute
√?Ň tre en rage et d√?¬©√?¬ßu c'est normal

Important: The song above is NOT stored on the Chordie server. The original song is hosted at www.azchords.com. Chordie works as a search engine and provides on-the-fly formatting. Chordie does not index songs against artists'/composers' will. To remove this song please click here.

Text color:
Chord color:
Chord grids: 
Font size:    
Page size: 

Am Dm
Rate #1 of 1 versions

Jango Player

Login - add to songbook

SHARE PAGE  



You need to log in to post comments