Guitar Tabs, Chords and Lyrics
Server problems seems to be fixed. Chordie has been experiencing problems with songs disappearing. These issues now seems to be fixed, but still verifying the fix. If you find anything strange, please email admin@chordie.com.


Junk  Zico Chain

Of course Zico Chain only have 1 guitar but this is arranged for 2. Any questions/
Enjoy :)
Q Q. Q E Q Q. Q E Q Q. E E E
 
 D|-----------------|-----------------|-----------------|
 A|-----------------|-----------------|-----------------|
 F|-----------------|-----------------|-----------------|
 Guitar 1 C|-----2-----------|-----2-----------|-----2-----------|
 G|-4---0-----2---3-|-4---0-----2---3-|-4---0-----2---3-|
 C|-4---------2---3-|-4---------2---3-|-4---------2---3-|

|
|
|
|
|
| Q Q. Q E Q Q. Q E Q Q. E E C
 
 D|-----------------|-----------------|-----------------|
 A|-----------------|-----------------|-----------------|
 F|-----------------|-----------------|-----------------|
 Guitar 2 C|-----2-----------|-----2-----------|-----2-----------|
 G|-4---0-----2---3-|-4---0-----2---3-|-4---0-----2---3-|
 C|-4---------2---3-|-4---------2---3-|-4---------2---3-|

Q Q. E E E Q Q. E E E Q Q. E E E Q H.
 
 D|-----------------|-----------------|-----------------|-----------------|
 A|-----------------|-----------------|-----------------|-----------------|
 F|-----------------|-----------------|-----------------|-----------------|
 C|-----2-----------|-----2-----------|-----2-----------|-----2-----------|
 G|-4---0-----2---3-|-4---0-----2---3-|-4---0-----2---3-|-4---0-----------|
 C|-4---------2---3-|-4---------2---3-|-4---------2---3-|-4---------------|

|
|
|
|
|
| Q Q. E E E Q Q. E E E Q Q. E E E Q H.
 
 D|-----------------|-----------------|-----------------|-----------------|
 A|-----------------|-----------------|-----------------|-----------------|
 F|-----------------|-----------------|-----------------|-----------------|
 C|-----2-----------|-----2-----------|-----2-----------|-----2-----------|
 G|-4---0-----2---3-|-4---0-----2---3-|-4---0-----2---3-|-4---0-----------|
 C|-4---------2---3-|-4---------2---3-|-4---------2---3-|-4---------------|

verse
[E] [E] [E] [E] [E] [E] [E] [E] [E] [E] [E] [E] [B] [E] [E] [E] [E] [E] [E] [E] [E] [E] [E] [E] [E] [E] [E] [E] [E]  
 
 D|-----------------|-----------------|-----------------|-----------------|
 A|-----------------|-----------------|-----------------|-----------------|
 F|-----------------|-----------------|-----------------|-----------------|
 C|-4-4-4-4-7-7-7-7-|-2-2-2-2---------|-4-4-4-4-7-7-7-7-|-2-2-2-2-0-0-0-0-|
 G|-4-4-4-4-7-7-7-7-|-2-2-2-2---------|-4-4-4-4-7-7-7-7-|-2-2-2-2-0-0-0-0-|
 C|-4-4-4-4-7-7-7-7-|-2-2-2-2---------|-4-4-4-4-7-7-7-7-|-2-2-2-2-0-0-0-0-|

|
|
|
|
|
| E E E E E E E E E E E E H E E E E E E E E E E E E E E E E
 
 D|-----------------|-----------------|-----------------|-----------------|
 A|-----------------|-----------------|-----------------|-----------------|
 F|-----------------|-----------------|-----------------|-----------------|
 C|-4-4-4-4-7-7-7-7-|-2-2-2-2---------|-4-4-4-4-7-7-7-7-|-2-2-2-2-0-0-0-0-|
 G|-4-4-4-4-7-7-7-7-|-2-2-2-2---------|-4-4-4-4-7-7-7-7-|-2-2-2-2-0-0-0-0-|
 C|-4-4-4-4-7-7-7-7-|-2-2-2-2---------|-4-4-4-4-7-7-7-7-|-2-2-2-2-0-0-0-0-|

[E] [E] [E] [E] [E] [E] [E] [E] [E] [E] [E] [E] [B] [E] [E] [E] [E] [E] [E] [E] [E] [E] [E] [E] [E] [E] [E] [E] [E]  
 
 D|-----------------|-----------------|-----------------|-----------------|
 A|-----------------|-----------------|-----------------|-----------------|
 F|-----------------|-----------------|-----------------|-----------------|
 C|-4-4-4-4-7-7-7-7-|-2-2-2-2---------|-4-4-4-4-7-7-7-7-|-2-2-2-2-0-0-0-0-|
 G|-4-4-4-4-7-7-7-7-|-2-2-2-2---------|-4-4-4-4-7-7-7-7-|-2-2-2-2-0-0-0-0-|
 C|-4-4-4-4-7-7-7-7-|-2-2-2-2---------|-4-4-4-4-7-7-7-7-|-2-2-2-2-0-0-0-0-|

|
|
|
|
|
| E E E E E E E E E E E E H E E E E E E E E E E E E E E E E
 
 D|-----------------|-----------------|-----------------|-----------------|
 A|-----------------|-----------------|-----------------|-----------------|
 F|-----------------|-----------------|-----------------|-----------------|
 C|-4-4-4-4-7-7-7-7-|-2-2-2-2---------|-4-4-4-4-7-7-7-7-|-2-2-2-2-0-0-0-0-|
 G|-4-4-4-4-7-7-7-7-|-2-2-2-2---------|-4-4-4-4-7-7-7-7-|-2-2-2-2-0-0-0-0-|
 C|-4-4-4-4-7-7-7-7-|-2-2-2-2---------|-4-4-4-4-7-7-7-7-|-2-2-2-2-0-0-0-0-|

E E E E E E E E E E E E E E E E Q Q. Q E Q Q. Q E
 
 D|-----------------|-----------------|-----------------|-----------------|
 A|-----------------|-----------------|-----------------|-----------------|
 F|-4-4-4-4-4-4-4-4-|-----------------|-----------------|-----------------|
 C|-4-4-4-4-4-4-4-4-|-2-2-2-2-2-2-2-2-|-----2-----------|-----2-----------|
 G|-2-2-2-2-2-2-2-2-|-2-2-2-2-2-2-2-2-|-4---0-----2---3-|-4---0-----2---3-|
 C|-----------------|-2-2-2-2-2-2-2-2-|-4---------2---3-|-4---------2---3-|

|
|
|
|
|
| E E E E E E E E E E E E E E E E Q Q. Q E Q Q. Q E
 
 D|-----------------|-----------------|-----------------|-----------------|
 A|-----------------|-----------------|-----------------|-----------------|
 F|-4-4-4-4-4-4-4-4-|-----------------|-11--14----9---10|-11--14----9---10|
 C|-4-4-4-4-4-4-4-4-|-2-2-2-2-2-2-2-2-|-----------------|-----------------|
 G|-2-2-2-2-2-2-2-2-|-2-2-2-2-2-2-2-2-|-9---12----7---8-|-9---12----7---8-|
 C|-----------------|-2-2-2-2-2-2-2-2-|-----------------|-----------------|

E E E E E E E E E E E E E E E E Q Q. Q E Q Q. Q E
 
 D|-----------------|-----------------|-----------------|-----------------|
 A|-----------------|-----------------|-----------------|-----------------|
 F|-4-4-4-4-4-4-4-4-|-----------------|-----------------|-----------------|
 C|-4-4-4-4-4-4-4-4-|-2-2-2-2-2-2-2-2-|-----2-----------|-----2-----------|
 G|-2-2-2-2-2-2-2-2-|-2-2-2-2-2-2-2-2-|-4---0-----2---3-|-4---0-----2---3-|
 C|-----------------|-2-2-2-2-2-2-2-2-|-4---------2---3-|-4---------2---3-|

|
|
|
|
|
| E E E E E E E E E E E E E E E E Q Q. Q E Q Q. Q E
 
 D|-----------------|-----------------|-----------------|-----------------|
 A|-----------------|-----------------|-----------------|-----------------|
 F|-4-4-4-4-4-4-4-4-|-----------------|-11--14----9---10|-11--14----9---10|
 C|-4-4-4-4-4-4-4-4-|-2-2-2-2-2-2-2-2-|-----------------|-----------------|
 G|-2-2-2-2-2-2-2-2-|-2-2-2-2-2-2-2-2-|-9---12----7---8-|-9---12----7---8-|
 C|-----------------|-2-2-2-2-2-2-2-2-|-----------------|-----------------|

Pre Chorus
E E E E E E E E E E E E E E E E E E E E E E E E W
 
 D|-----------------|-----------------|-----------------|-----------------|
 A|-----------------|-----------------|-----------------|-----------------|
 F|-----------------|-----------------|-6-6-6-6-6-6-6-6-|-6---------------|
 C|-0-0-0-0-0-0-0-0-|-0-0-0-0-0-0-0-0-|-6-6-6-6-6-6-6-6-|-6---------------|
 G|-0-0-0-0-0-0-0-0-|-0-0-0-0-0-0-0-0-|-4-4-4-4-4-4-4-4-|-4---------------|
 C|-0-0-0-0-0-0-0-0-|-0-0-0-0-0-0-0-0-|-----------------|-----------------|

|
|
|
|
|
| E E E E E E E E E E E E E E E E E E E E E E E E W
 
 D|-----------------|-----------------|-----------------|-----------------|
 A|-----------------|-----------------|-----------------|-9---------------|
 F|-----------------|-----------------|-6-6-6-6-6-6-6-6-|-----------------|
 C|-0-0-0-0-0-0-0-0-|-0-0-0-0-0-0-0-0-|-----------------|-6---------------|
 G|-0-0-0-0-0-0-0-0-|-0-0-0-0-0-0-0-0-|-4-4-4-4-4-4-4-4-|-----------------|
 C|-0-0-0-0-0-0-0-0-|-0-0-0-0-0-0-0-0-|-----------------|-----------------|

Chorus (slower)
|-3-|
H H H E E E E Q Q Q E E Q. E Q Q Q
 
 D|-----------------|-----------------|-----------------|---------------|
 A|-----------------|-----------------|-----------------|---------------|
 F|-----------------|-----------------|-----------------|---------------|
 C|-4-------0-------|-2-------7-6-4-2-|-4---4---0---2-4-|-2-----2-7-6-2-|
 G|-4-------0-------|-2-------7-6-4-2-|-4---4---0---2-4-|-2-----2-7-6-2-|
 C|-4-------0-------|-2-------7-6-4-2-|-4---4---0---2-4-|-2-----2-7-6-2-|

|
|
|
|
| |-3-|
| H H H E E E E Q Q Q E E Q. E Q Q Q
 
 D|-----------------|-----------------|-----------------|---------------|
 A|-----------------|-----------------|-----------------|---------------|
 F|-----------------|-----------------|-----------------|---------------|
 C|-4-------0-------|-2-------7-6-4-2-|-4---4---0---2-4-|-2-----2-7-6-2-|
 G|-4-------0-------|-2-------7-6-4-2-|-4---4---0---2-4-|-2-----2-7-6-2-|
 C|-4-------0-------|-2-------7-6-4-2-|-4---4---0---2-4-|-2-----2-7-6-2-|

H H H E E E E W W
 
 D|-----------------|-----------------|-----------------|-----------------|
 A|-----------------|-----------------|-----------------|-----------------|
 F|-----------------|-----------------|-6+--------------|-6---------------|
 C|-4-------0-------|-2-------0-2-0-2-|-6+--------------|-6---------------|
 G|-4-------0-------|-2-------0-2-0-2-|-4+--------------|-4---------------|
 C|-4-------0-------|-2-------0-2-0-2-|-----------------|-----------------|

|
|
|
|
|
| H H H E E E E W W
 
 D|-----------------|-----------------|-----------------|-----------------|
 A|-----------------|-----------------|-----------------|-----------------|
 F|-----------------|-----------------|-6+--------------|-6---------------|
 C|-4-------0-------|-2-------0-2-0-2-|-6+--------------|-6---------------|
 G|-4-------0-------|-2-------0-2-0-2-|-4+--------------|-4---------------|
 C|-4-------0-------|-2-------0-2-0-2-|-----------------|-----------------|

Bridge
Q Q. Q E Q Q. Q E Q Q. E E E Q Q. E E E
 
 D|-----------------|-----------------|-----------------|-----------------|
 A|-----------------|-----------------|-----------------|-----------------|
 F|-----------------|-----------------|-----------------|-----------------|
 C|-----2-----------|-----2-----------|-----2-----------|-----2-----------|
 G|-4---0-----2---3-|-4---0-----2---3-|-4---0-----2---3-|-4---0-----2---3-|
 C|-4---------2---3-|-4---------2---3-|-4---------2---3-|-4---------2---3-|

|
|
|
|
|
| Q Q. Q E Q Q. Q E Q Q. E E E Q Q. E E E
 
 D|-----------------|-----------------|-----------------|-----------------|
 A|-----------------|-----------------|-----------------|-----------------|
 F|-----------------|-----------------|-----------------|-----------------|
 C|-----2-----------|-----2-----------|-----2-----------|-----2-----------|
 G|-4---0-----2---3-|-4---0-----2---3-|-4---0-----2---3-|-4---0-----2---3-|
 C|-4---------2---3-|-4---------2---3-|-4---------2---3-|-4---------2---3-|

Verse
Q Q. E E E Q Q. E E E Q H. E E E E E E E E
 
 D|-----------------|-----------------|-----------------|-----------------|
 A|-----------------|-----------------|-----------------|-----------------|
 F|-----------------|-----------------|-----------------|-----------------|
 C|-----2-----------|-----2-----------|-----2-----------|-4-4-4-4-7-7-7-7-|
 G|-4---0-----2---3-|-4---0-----2---3-|-4---0-----------|-4-4-4-4-7-7-7-7-|
 C|-4---------2---3-|-4---------2---3-|-4---------------|-4-4-4-4-7-7-7-7-|

|
|
|
|
|
| Q Q. E E E Q Q. E E E Q H. E E E E E E E E
 
 D|-----------------|-----------------|-----------------|-----------------|
 A|-----------------|-----------------|-----------------|-----------------|
 F|-----------------|-----------------|-----------------|-----------------|
 C|-----2-----------|-----2-----------|-----2-----------|-4-4-4-4-7-7-7-7-|
 G|-4---0-----2---3-|-4---0-----2---3-|-4---0-----------|-4-4-4-4-7-7-7-7-|
 C|-4---------2---3-|-4---------2---3-|-4---------------|-4-4-4-4-7-7-7-7-|

[E] [E] [E] [E] [B] [E] [E] [E] [E] [E] [E] [E] [E] [E] [E] [E] [E] [E] [E] [E] [E] [E] [E] [E] [E] [E] [E] [E] [E]  
 
 D|-----------------|-----------------|-----------------|-----------------|
 A|-----------------|-----------------|-----------------|-----------------|
 F|-----------------|-----------------|-----------------|-----------------|
 C|-2-2-2-2---------|-4-4-4-4-7-7-7-7-|-2-2-2-2-0-0-0-0-|-4-4-4-4-7-7-7-7-|
 G|-2-2-2-2---------|-4-4-4-4-7-7-7-7-|-2-2-2-2-0-0-0-0-|-4-4-4-4-7-7-7-7-|
 C|-2-2-2-2---------|-4-4-4-4-7-7-7-7-|-2-2-2-2-0-0-0-0-|-4-4-4-4-7-7-7-7-|

|
|
|
|
|
| E E E E H E E E E E E E E E E E E E E E E E E E E E E E E
 
 D|-----------------|-----------------|-----------------|-----------------|
 A|-----------------|-----------------|-----------------|-----------------|
 F|-----------------|-----------------|-----------------|-----------------|
 C|-2-2-2-2---------|-4-4-4-4-7-7-7-7-|-2-2-2-2-0-0-0-0-|-4-4-4-4-7-7-7-7-|
 G|-2-2-2-2---------|-4-4-4-4-7-7-7-7-|-2-2-2-2-0-0-0-0-|-4-4-4-4-7-7-7-7-|
 C|-2-2-2-2---------|-4-4-4-4-7-7-7-7-|-2-2-2-2-0-0-0-0-|-4-4-4-4-7-7-7-7-|

[E] [E] [E] [E] [B] [E] [E] [E] [E] [E] [E] [E] [E] [E] [E] [E] [E] [E] [E] [E] [E] [E] [E] [E] [E] [E] [E] [E] [E]  
 
 D|-----------------|-----------------|-----------------|-----------------|
 A|-----------------|-----------------|-----------------|-----------------|
 F|-----------------|-----------------|-----------------|-4-4-4-4-4-4-4-4-|
 C|-2-2-2-2---------|-4-4-4-4-7-7-7-7-|-2-2-2-2-0-0-0-0-|-4-4-4-4-4-4-4-4-|
 G|-2-2-2-2---------|-4-4-4-4-7-7-7-7-|-2-2-2-2-0-0-0-0-|-2-2-2-2-2-2-2-2-|
 C|-2-2-2-2---------|-4-4-4-4-7-7-7-7-|-2-2-2-2-0-0-0-0-|-----------------|

|
|
|
|
|
| E E E E H E E E E E E E E E E E E E E E E E E E E E E E E
 
 D|-----------------|-----------------|-----------------|-----------------|
 A|-----------------|-----------------|-----------------|-----------------|
 F|-----------------|-----------------|-----------------|-4-4-4-4-4-4-4-4-|
 C|-2-2-2-2---------|-4-4-4-4-7-7-7-7-|-2-2-2-2-0-0-0-0-|-4-4-4-4-4-4-4-4-|
 G|-2-2-2-2---------|-4-4-4-4-7-7-7-7-|-2-2-2-2-0-0-0-0-|-2-2-2-2-2-2-2-2-|
 C|-2-2-2-2---------|-4-4-4-4-7-7-7-7-|-2-2-2-2-0-0-0-0-|-----------------|

E E E E E E E E Q Q. Q E Q Q. Q E E E E E E E E E
 
 D|-----------------|-----------------|-----------------|-----------------|
 A|-----------------|-----------------|-----------------|-----------------|
 F|-----------------|-----------------|-----------------|-4-4-4-4-4-4-4-4-|
 C|-2-2-2-2-2-2-2-2-|-----2-----------|-----2-----------|-4-4-4-4-4-4-4-4-|
 G|-2-2-2-2-2-2-2-2-|-4---0-----2---3-|-4---0-----2---3-|-2-2-2-2-2-2-2-2-|
 C|-2-2-2-2-2-2-2-2-|-4---------2---3-|-4---------2---3-|-----------------|

|
|
|
|
|
| E E E E E E E E Q Q. Q E Q Q. Q E E E E E E E E E
 
 D|-----------------|-----------------|-----------------|-----------------|
 A|-----------------|-----------------|-----------------|-----------------|
 F|-----------------|-11--14----9---10|-11--14----9---10|-4-4-4-4-4-4-4-4-|
 C|-2-2-2-2-2-2-2-2-|-----------------|-----------------|-4-4-4-4-4-4-4-4-|
 G|-2-2-2-2-2-2-2-2-|-9---12----7---8-|-9---12----7---8-|-2-2-2-2-2-2-2-2-|
 C|-2-2-2-2-2-2-2-2-|-----------------|-----------------|-----------------|

E E E E E E E E Q Q. Q E Q Q. Q E E E E E E E E E
 
 D|-----------------|-----------------|-----------------|-----------------|
 A|-----------------|-----------------|-----------------|-----------------|
 F|-----------------|-----------------|-----------------|-----------------|
 C|-2-2-2-2-2-2-2-2-|-----2-----------|-----2-----------|-0-0-0-0-0-0-0-0-|
 G|-2-2-2-2-2-2-2-2-|-4---0-----2---3-|-4---0-----2---3-|-0-0-0-0-0-0-0-0-|
 C|-2-2-2-2-2-2-2-2-|-4---------2---3-|-4---------2---3-|-0-0-0-0-0-0-0-0-|

|
|
|
|
|
| E E E E E E E E Q Q. Q E Q Q. Q E E E E E E E E E
 
 D|-----------------|-----------------|-----------------|-----------------|
 A|-----------------|-----------------|-----------------|-----------------|
 F|-----------------|-11--14----9---10|-11--14----9---10|-----------------|
 C|-2-2-2-2-2-2-2-2-|-----------------|-----------------|-0-0-0-0-0-0-0-0-|
 G|-2-2-2-2-2-2-2-2-|-9---12----7---8-|-9---12----7---8-|-0-0-0-0-0-0-0-0-|
 C|-2-2-2-2-2-2-2-2-|-----------------|-----------------|-0-0-0-0-0-0-0-0-|

Chorus
E E E E E E E E E E E E E E E E W H H
 
 D|-----------------|-----------------|-----------------|-----------------|
 A|-----------------|-----------------|-----------------|-----------------|
 F|-----------------|-6-6-6-6-6-6-6-6-|-6---------------|-----------------|
 C|-0-0-0-0-0-0-0-0-|-6-6-6-6-6-6-6-6-|-6---------------|-4-------0-------|
 G|-0-0-0-0-0-0-0-0-|-4-4-4-4-4-4-4-4-|-4---------------|-4-------0-------|
 C|-0-0-0-0-0-0-0-0-|-----------------|-----------------|-4-------0-------|

|
|
|
|
|
| E E E E E E E E E E E E E E E E W H H
 
 D|-----------------|-----------------|-----------------|-----------------|
 A|-----------------|-----------------|-9---------------|-----------------|
 F|-----------------|-6-6-6-6-6-6-6-6-|-----------------|-----------------|
 C|-0-0-0-0-0-0-0-0-|-----------------|-6---------------|-4-------0-------|
 G|-0-0-0-0-0-0-0-0-|-4-4-4-4-4-4-4-4-|-----------------|-4-------0-------|
 C|-0-0-0-0-0-0-0-0-|-----------------|-----------------|-4-------0-------|

|-3-|
H E E E E Q Q Q E E Q. E Q Q Q H H
 
 D|-----------------|-----------------|---------------|-----------------|
 A|-----------------|-----------------|---------------|-----------------|
 F|-----------------|-----------------|---------------|-----------------|
 C|-2-------7-6-4-2-|-4---4---0---2-4-|-2-----2-7-6-2-|-4-------0-------|
 G|-2-------7-6-4-2-|-4---4---0---2-4-|-2-----2-7-6-2-|-4-------0-------|
 C|-2-------7-6-4-2-|-4---4---0---2-4-|-2-----2-7-6-2-|-4-------0-------|

|
|
|
|
| |-3-|
| H E E E E Q Q Q E E Q. E Q Q Q H H
 
 D|-----------------|-----------------|---------------|-----------------|
 A|-----------------|-----------------|---------------|-----------------|
 F|-----------------|-----------------|---------------|-----------------|
 C|-2-------7-6-4-2-|-4---4---0---2-4-|-2-----2-7-6-2-|-4-------0-------|
 G|-2-------7-6-4-2-|-4---4---0---2-4-|-2-----2-7-6-2-|-4-------0-------|
 C|-2-------7-6-4-2-|-4---4---0---2-4-|-2-----2-7-6-2-|-4-------0-------|

Middle 8
[B] [E] [E] [E] [E] [E] [E] [E] [E] [E] [E] [E] [E] [E] [E] [E] [E] [E] [E] [E] [E] [E] [E] [E] [E] [E] [E] [E] [E]  
 
 D|-----------------|-----------------|------------------------|-----------------|
 A|-----------------|-----------------|------------------------|-----------------|
 F|-----------------|-6-6-6-6-6-6-6-6-|-6--6--6--6--6--6--6--6-|-6-6-6-6-6-6-6-6-|
 C|-2-------0-2-0-2-|-6-6-6-6-6-6-6-6-|-6--6--6--6--6--6--6--6-|-6-6-6-6-6-6-6-6-|
 G|-2-------0-2-0-2-|-4-4-4-4-4-4-4-4-|-4--4--4--4--4--4--4--4-|-4-4-4-4-4-4-4-4-|
 C|-2-------0-2-0-2-|-----------------|------------------------|-----------------|

|
|
|
|
|
| H E E E E E E E E E E E E E E E E E E E E E E E E E E E E
 
 D|-----------------|-----------------|------------------------|-----------------|
 A|-----------------|-----------------|------------------------|-----------------|
 F|-----------------|-6-6-6-6-6-6-6-6-|-10-10-10-10-10-10-10-10|-9-9-9-9-9-9-9-9-|
 C|-2-------0-2-0-2-|-----------------|------------------------|-----------------|
 G|-2-------0-2-0-2-|-4-4-4-4-4-4-4-4-|-8--8--8--8--8--8--8--8-|-7-7-7-7-7-7-7-7-|
 C|-2-------0-2-0-2-|-----------------|------------------------|-----------------|

E E E E E E E E Q Q. Q E Q Q. Q E Q Q. E E E
 
 D|------------------------|-----------------|-----------------|-----------------|
 A|------------------------|-----------------|-----------------|-----------------|
 F|-6--6--6--6--6--6--6--6-|-----------------|-----------------|-----------------|
 C|-6--6--6--6--6--6--6--6-|-----2-----------|-----2-----------|-----2-----------|
 G|-4--4--4--4--4--4--4--4-|-4---0-----2---3-|-4---0-----2---3-|-4---0-----2---3-|
 C|------------------------|-4---------2---3-|-4---------2---3-|-4---------2---3-|

|
|
|
|
|
| E E E E E E E E
 
 D|------------------------|-----------------|-----------------|-----------------|
 A|------------------------|-----------------|-----------------|-----------------|
 F|-13-13-13-13-13-13-13-13|-----------------|-----------------|-----------------|
 C|------------------------|-----2-----------|-----2-----------|-----2-----------|
 G|-11-11-11-11-11-11-11-11|-4---0-----2---3-|-4---0-----2---3-|-4---0-----2---3-|
 C|------------------------|-4---------2---3-|-4---------2---3-|-4---------2---3-|

Q Q. E E E Q Q. E E E Q Q. E E E Q Q. E E E
 
 D|-----------------|-----------------|-----------------|-----------------|
 A|-----------------|-----------------|-----------------|-----------------|
 F|-----------------|-----------------|-----------------|-----------------|
 C|-----2-----------|-----2-----------|-----2-----------|-----2-----------|
 G|-4---0-----2---3-|-4---0-----2---3-|-4---0-----2---3-|-4---0-----2---3-|
 C|-4---------2---3-|-4---------2---3-|-4---------2---3-|-4---------2---3-|

|
|
|
|
|
|
 
 D|-----------------|-----------------|-----------------|-----------------|
 A|-----------------|-----------------|-----------------|-----------------|
 F|-----------------|-----------------|-----------------|-----------------|
 C|-----2-----------|-----2-----------|-----2-----------|-----2-----------|
 G|-4---0-----2---3-|-4---0-----2---3-|-4---0-----2---3-|-4---0-----2---3-|
 C|-4---------2---3-|-4---------2---3-|-4---------2---3-|-4---------2---3-|

[E] [E] [E] [E] [E] [E] [E] [E] [E] [E] [E] [E] [E] [E] [E] [E] [E] [E] [E] [E] [E] [E] [E] [E]  
 
 D|-----------------|------------------------|------------------------|
 A|-----------------|------------------------|------------------------|
 F|-----------------|------------------------|-6--6--6--6--6--6--6--6-|
 C|-0-0-0-0-0-0-0-0-|-0--0--0--0--0--0--0--0-|-6--6--6--6--6--6--6--6-|
 G|-0-0-0-0-0-0-0-0-|-0--0--0--0--0--0--0--0-|-4--4--4--4--4--4--4--4-|
 C|-0-0-0-0-0-0-0-0-|-0--0--0--0--0--0--0--0-|------------------------|

|
|
|
|
|
| E E E E E E E E E E E E E E E E E E E E E E E E
 
 D|-----------------|------------------------|------------------------|
 A|-----------------|------------------------|------------------------|
 F|-7-7-7-7-7-7-7-7-|-11-11-11-11-11-11-11-11|-10-10-10-10-10-10-10-10|
 C|-----------------|------------------------|------------------------|
 G|-5-5-5-5-5-5-5-5-|-9--9--9--9--9--9--9--9-|-8--8--8--8--8--8--8--8-|
 C|-----------------|------------------------|------------------------|

[E] [E] [E] [E] [E] [E] [E] [E] [E] [E] [E] [E] [E] [E] [E] [E] [E] [E] [E] [E] [E] [E] [E] [E] [E] [E] [E] [E] [E] [E] [E] [E]  
 
 D|------------------------|-----------------|-----------------|-----------------|
 A|------------------------|-----------------|-----------------|-----------------|
 F|-6--6--6--6--6--6--6--6-|-7-7-7-7-7-7-7-7-|-7-7-7-7-7-7-7-7-|-6-6-6-6-6-6-6-6-|
 C|-6--6--6--6--6--6--6--6-|-7-7-7-7-7-7-7-7-|-7-7-7-7-7-7-7-7-|-6-6-6-6-6-6-6-6-|
 G|-4--4--4--4--4--4--4--4-|-5-5-5-5-5-5-5-5-|-5-5-5-5-5-5-5-5-|-4-4-4-4-4-4-4-4-|
 C|------------------------|-----------------|-----------------|-----------------|

|
|
|
|
|
| E E E E E E E E E E E E E E E E E E E E E E E E E E E E E E E E
 
 D|------------------------|-----------------|-----------------|-----------------|
 A|------------------------|-----------------|-----------------|-----------------|
 F|-13-13-13-13-13-13-13-13|-7-7-7-7-7-7-7-7-|-9-9-9-9-9-9-9-9-|-6-6-6-6-6-6-6-6-|
 C|------------------------|-----------------|-----------------|-----------------|
 G|-11-11-11-11-11-11-11-11|-5-5-5-5-5-5-5-5-|-7-7-7-7-7-7-7-7-|-4-4-4-4-4-4-4-4-|
 C|------------------------|-----------------|-----------------|-----------------|

Chorus
W H H H E E E E Q Q Q E E
 
 D|-----------------|-----------------|-----------------|-----------------|
 A|-----------------|-----------------|-----------------|-----------------|
 F|-6---------------|-----------------|-----------------|-----------------|
 C|-6---------------|-4-------0-------|-2-------7-6-4-2-|-4---4---0---2-4-|
 G|-4---------------|-4-------0-------|-2-------7-6-4-2-|-4---4---0---2-4-|
 C|-----------------|-4-------0-------|-2-------7-6-4-2-|-4---4---0---2-4-|

|
|
|
|
|
| W H H H E E E E Q Q Q E E
 
 D|-----------------|-----------------|-----------------|-----------------|
 A|-----------------|-----------------|-----------------|-----------------|
 F|-13--------------|-----------------|-----------------|-----------------|
 C|-----------------|-----------------|---------7-6-----|---------7---9-11|
 G|-11--------------|-9-------9-------|-7-----------9-7-|-9---9-----------|
 C|-----------------|-----------------|-----------------|-----------------|

|-3-|
Q. E Q Q Q H H H E E E E E E E E E E E E
 
 D|---------------|-----------------|-----------------|-----------------|
 A|---------------|-----------------|-----------------|-----------------|
 F|---------------|-----------------|-----------------|-6-6-6-6-6-6-6-6-|
 C|-2-----2-7-6-2-|-4-------0-------|-2-------0-2-0-2-|-6-6-6-6-6-6-6-6-|
 G|-2-----2-7-6-2-|-4-------0-------|-2-------0-2-0-2-|-4-4-4-4-4-4-4-4-|
 C|-2-----2-7-6-2-|-4-------0-------|-2-------0-2-0-2-|-----------------|

|
|
|
|
| |-3-|
| Q. E Q Q Q H H H E E E E E E E E E E E E
 
 D|---------------|-----------------|-----------------|-----------------|
 A|---------------|-----------------|-----------------|-----------------|
 F|---------------|-----------------|-----------------|-6-6-6-6-6-6-6-6-|
 C|-9-------7-6---|-----------------|-----------------|-----------------|
 G|-------9-----7-|-9-------5-------|-7-------5-7-5-7-|-4-4-4-4-4-4-4-4-|
 C|---------------|-----------------|-----------------|-----------------|

E E E E E E E E H H H E E E E Q Q Q E E
 
 D|-----------------|-----------------|-------------------|------------------|
 A|-----------------|-----------------|-------------------|------------------|
 F|-6-6-6-6-6-6-6-6-|-----------------|-------------------|------------------|
 C|-6-6-6-6-6-6-6-6-|-4-------0-------|-2-------7--6-4--2-|-4---4---0---2--4-|
 G|-4-4-4-4-4-4-4-4-|-4-------0-------|-2-------7--6-4--2-|-4---4---0---2--4-|
 C|-----------------|-4-------0-------|-2-------7--6-4--2-|-4---4---0---2--4-|

|
|
|
|
|
| E E E E E E Q H H H E E E E Q Q Q E E
 
 D|-----------------|-----------------|-------------------|------------------|
 A|-9-9-9-9-9-9-----|---------10------|-9-------10-9------|---------10--12-14|
 F|-------------9---|-11--------------|--------------11-9-|-11--11-----------|
 C|-6-6-6-6-6-6-----|-----------------|-------------------|------------------|
 G|-----------------|-----------------|-------------------|------------------|
 C|-----------------|-----------------|-------------------|------------------|

|-3--|
Q. E Q Q Q H H H E E E E W
 
 D|-----------------|-----------------|-----------------|-----------------|
 A|-----------------|-----------------|-----------------|-----------------|
 F|-----------------|-----------------|-----------------|-6---------------|
 C|-2-----2--7--6-2-|-4-------0-------|-2-------0-2-0-2-|-6---------------|
 G|-2-----2--7--6-2-|-4-------0-------|-2-------0-2-0-2-|-4---------------|
 C|-2-----2--7--6-2-|-4-------0-------|-2-------0-2-0-2-|-----------------|

|
|
| (Slowing down)
|
| |-3--|
| Q. E Q Q Q H H Q Q E E E E E E Q H
 
 D|-----------------|-----------------|-----------------|-----------------|
 A|-12-------10-9---|-----------------|-----------------|-----------------|
 F|-------11------9-|-11------7-------|-9-------7-6-----|-----------------|
 C|-----------------|-----------------|-------------9-7-|-6---------------|
 G|-----------------|-----------------|-----------------|-----------------|
 C|-----------------|-----------------|-----------------|-----------------|


Important: The song above is NOT stored on the Chordie server. The original song is hosted at www.azchords.com. Chordie works as a search engine and provides on-the-fly formatting. Chordie does not index songs against artists'/composers' will. To remove this song please click here.

Text color:
Chord color:
Chord grids: 
Font size:    
Page size: 

B E
Rate #1 of 1 versions

Jango Player

Login - add to songbook

SHARE PAGE  



You need to log in to post comments