Guitar Tabs, Chords and Lyrics
Update 25:10. 13:00. Site is back up running again. Songbooks are recovered. Woring on getting search back up..


Sure Got Cold After the Rain Fell  ZZ Top

This song is played slowly and freely
Rain fell / Make me feel
[A] [D] [A7] [D] [A] [D] [A7] [D] [A] [D] [A7] [D]  
 
 E|-------------|-----------|-----------|-----------|-----------|-----------|
 B|----2-----3-----5-----3-----2-----3-----5-----3-----2-----3-----5-----3--|
 G|---2-2---2-2---6-6---2-2---2-2---2-2---6-6---2-2---2-2---2-2---6-6---2-2-|
 D|--2---2-4---4-5---5-4---4-2---2-4---4-5---5-4---4-2---2-4---4-5---5-4---4|
 A|-0-----0-----0-----0-----0-----0-----0-----0-----0-----0-----0-----0-----|
 E|-------------------------------------------------------------------------|

On account /Walked off /Like taking / & money/That woman /And walked
[A] [D] [A7] [D] [A] [D] [A7] [D] [A] [D] [A7] [D]  
 
 ------------|-----------|-----------|-----------|-----------|-------------|
 ---2-----3-----5-----3-----2-----3-----5-----3-----2-----3-----5-----3----|
 --2-2---2-2---6-6---2-2---2-2---2-2---6-6---2-2---2-2---2-2---6-6---2-----|
 -2---2-4---4-5---5-4---4-2---2-4---4-5---5-4---4-2---2-4---4-5---5-4------|
 0-----0-----0-----0-----0-----0-----0-----0-----0-----0-----0-----0-------|
 ----------------------------------------------------------------------0-2-|

And it sure /After the rain / Not from / From my eye
[G] [Ds2] [A] [G] [Ds2] [A] [A]  
 
 ---------0---|--------------------|---------0--|-------------------|-------|
 ---0------3----2-3-3-3p2-3-3-2-------0------3----2-2-2h3-3-3-2!-$-----2----|
 ----0---2--2--2--2-2-2p2-2-2-2--------0---2--2--2--2-2h2-2-2-2!-$----2-2---|
 --0--0-0-----2---4-4-4p2-4-4-2------0--0-0-----2---2-2h4-4-4-2!-$---2---2--|
 -2----0-----0----------------0-----2----0-----0--------------------0-------|
 3-----------------------------0-2-3----------------------------------------|

Somebody can/Just what/ Like a
[D] [A7] [D] [A] [D] [A7] [D] [A] [D] [A7] [D] [A]  
 
 ------|-----------|-----------|---------0+-|---------0-|-----------|-------|
 ---3-----5-----3-----2-----3-----5-----3------2-----3-3---5-----3-----2----|
 --2-2---6-6---2-2---2-2---2-2---6-6---2------2-2---2-----6-6---2-2---2-2---|
 -4---4-5---5-4---4-2---2-4---4-5---5-4------2---2-4-----5---5-4---4-2---2--|
 0-----0-----0-----0-----0-----0-----0------0-----0-----0-----0-----0-------|
 ---------------------------------------------------------------------------|

river/Like night / AND IT SURE/ After the rain / Not from / From my eye
[D] [A7] [D] [G] [Ds2] [A] [G] [Ds2] [A]  
 
 ------|-------------|--------0--|-----------------|--------0--|--------------|
 ---3-----5-----3-------0------3----2---3p2--2--------0------3----2-----3-2---|$
 --2-2---6-6---2---------0---2--2--2-2--2p2-2----------0---2--2--2-2----2-2---|$
 -4---4-5---5-4--------0--0-0-----2---2-4p2---2------0--0-0-----2---4p2-4-2---|$
 0-----0-----0--------2----0-----0------------------2----0-----0--------------|
 ----------------0-2-3-------------------------0-2-3--------------------------|

[A] [D] [A7] [D] [A] [D] [A7] [D] [A]  
 
 ------------|-----------|-----------|-----------|-------------------------|
 ---2-----3-----5-----3-----2-----3-----5-----3---------14----------14-----|
 --2-2---2-2---6-6---2-2---2-2---2-2---6-6---2-2------14--14------14--14---|
 -2---2-4---4-5---5-4---4-2---2-4---4-5---5-4---4---14------14--14------14-|
 0-----0-----0-----0-----0-----0-----0-----0------16----------16-----------|
 --------------------------------------------------------------------------|

[A] [A] [D] [A7] [D] [A] [A]  
 
 ----------------------|------------|-----------|------------|-------------$|
 -----14---------14--------2-----3-----5-----3------5-----5-----5-----5----$|
 ---14--14-----14--14-----2-2---2-2---6-6---2-2----6-6---6-6---6-6---6-6!--$|
 --14-----14--14-----14--2---2-4---4-5---5-4---4--7---7-7---7-7---7-7------$|
 /16--------/16---------0-----0-----0-----0------7-----7-----7-----7-------$|
 -----------------------------------------------------------------------12\$|

If early in/ You hear that
[A] [D] [A7] [D] [A] [D] [A7] [D] [A] [D] [A7] [D]  
 
 ------------|-----------|---------0--|-----------|---------0--|-----------|
 ---2-----3-----5-----3-----2-----3-3----5-----------2-----3-3----5-----3--|
 --2-2---2-2---6-6---2-2---2-2---2---2--6-6---2+2---2-2---2---2--6-6---2-2-|
 -2---2-4---4-5---5-4---4-2---2-4------5---5-4---4-2---2-4------5---5-4---4|
 0-----0-----0-----0-----0-----0------0-----0-----0-----0------0-----0-----|
 --------------------------------------------------------------------------|

With thundr/The wind / Your worr's/ Cause it / But stormy/ If everythings
[A] [D] [A7] [D] [A] [D] [A7] [D] [A] [D] [A7] [D]  
 
 ------------|-----------|-----------|---------0-|---------0-|--------------|
 ---2-----3-----5-----3-----2-----3-----5-----3-3---2-----3-3---5-----3-----|
 --2-2---2-2---6-6---2-2---2-2---2-2---6-6---2-----2-2---2-----6-6---2-2----|
 -2---2-4---4-5---5-4---4-2---2-4---4-5---5-4-----2---2-4-----5---5-4---4---|
 0-----0-----0-----0-----0-----0-----0-----0-----0-----0-----0-----0--------|
 ------------------------------------------------------------------------0-2|

And it sure/ After the / Not from / But from my eye / Not from the
[G] [Ds2] [A] [G] [Ds2] [A] [G] [Ds2]  
 
 ---------0--|-------------|--------0--|-----------------------|--------0---|
 ---0------3----2-2---3-------0------3----2---2h3-2-2h3-2---------0------3--|
 ----0---2--2--2-2---2---------0---2--2--2--2-2h2-2-2h2-2----------0---2--2-|
 --0--0-0-----2-----4--------0--0-0-----2-----2h4-2-2h4-2--------0--0-0-----|
 -2----0-----0-----0--------2----0-----0---0--------------------2----0------|
 3---------------------0-2-3-------------------------------0-2-3------------|

[A] [G] [Ds2]  
 
 --------------|--------0---|
 ---2---3---------0------3--|
 --2---2--2--------0---2--2-|
 -2---4--4-------0--0-0-----|
 0---0----------2----0------|
 ----------0-2-3------------|

[A] [G] [Ds2] [A] [G] [Ds2]  
 
 --------------------------|--------0--|---------------|--------0---|
 -3-3-------------------------0------3--------------------0------3--|
 2-2-2-------------------------0---2--2--2--2-2+-2+--------0---2--2-|
 -----2-2-4p2-2-2-4p2-2------0--0-0-----2--4--2+-2+------0--0-0-----|
 ---------------------------2----0-----0--0---0+-0+-----2----0------|
 ----------------------0-2-3-----------------------0-2-3------------|

[A] [G] [Ds2] [A] [G]  
 
 ---------------------------|--------0--|---------------------------|------|
 ------------------------------0------3----2-2-3p2-3-3p2-3-3p2-2-------0---|
 -2-2---------------------------0---2--2--2--2-2p2-2-2p2-2-2p2-2--------0--|
 ----2-4-4-4-4-2-4-4-4-4------0--0-0-----2---2-4p2-4-4p2-4-4p2-2------0--0-|
 0-0-------------------------2----0-----0----------------------------2-----|
 -----------------------0-2-3-----------------------------------0-2-3------|

[Ds2] [A] [G] [Ds2] [A]  
 
 ---0--|---------------------------------|--------0--|-----------------------|
 ----3--------2h3-3-3-3-3-2h3-3-3-3-3-------0------3----2-2h3-3-2h3-3-2h3-3--|
 --2--2--2--2-2h2-2-2-2-2-2h2-2-2-2-2--------0---2--2--2--2h2-2-2h2-2-2h2-2--|
 -0-----2--4--2h4-4-4-4-4-2h4-4-4-4-4------0--0-0-----2---2h4-4-2h4-4-2h4-4--|
 0-----0--0-------------------------------2----0-----0-----------------------|
 ------------------------------------0-2-3---------------------------------0-|

[G] [Ds2] [A] [G] [D] [A]  
 
 ---|------------|----------------------------|--------0--|-------------------|
 --------0----3------2-2-3-3-2-3p2-3-3p2-2-------0------3-----2-------2-3p2-2-|
 ---------0--2-2----2--2-2-2-2-2p2-2-2p2-2--------0---2--2---2--2-2-2-2-2p2-2-|
 -----0-0---0---0--2---2-4-4-2-4p2-4-4p2-2------0--0-0------2---------2-4p2-2-|
 ----2-----0------0----------------------------2----0------0---0--------------|
 -2-3-------------------------------------0-2-3-------------------------------|

[G] [Ds2] [A] [G] [Ds2] [A]  
 
 -----------|--------0--|-------------------|--------0--|-------------|
 2-3p2-2-------0------3----2-2-2-2h3-3-3-------0------3---------------|
 2-2p2-2--------0---2--2--2------2-2-2-2--------0---2--2--2--2--2-----|
 2-4p2-2------0--0-0-----2-------2-2-2-2------0--0-0-----2--4--2-4----|
 ------------2----0-----0--------------------2----0-----0--0--0-------|
 -------0-2-3---------------------------0-2-3---------------------0-2-|

[G] [A]  
 
 ---------0--|-------------------|
 ---0------3--------2------$---$-|
 ----0---2--2-----2--------$---$-|
 --0--0-0-------2----------$---$-|
 -2----0------0------------$---$-|
 3-------------------------------|

h = hammer on
p = pull off
$ = rest
+ = let ring
/ = slide up
\ = slide down
! = stacoto note (strum then mute)
--|-- = the end of a measure
Ds2 = D susp. 2
(1st verse)
Rain fell this morning , Make me feel so bad , On account of my baby ,
Walked off with another man , Like taking eye sight from the blind man ,
And money from the poor , That woman took my lovin' ,
And walked out that door .
(chorus)
And it sure (nuff) got cold , After the rain fell , Not from the sky ,
(but) From my eye .
(2nd verse)
Somebody can you tell me , Just what make a man feel this way ,
Like a river without it's water , Like night without a day .
(3rd verse)
If ever early in the morning , You hear that rain to fall ,
With thunder bolts and lightning , The wind begins to call ,
Your worries superficial , Cause you slept on through the night ,
But stormy weather keep you wonderin' , If everythings alright .

Important: The song above is NOT stored on the Chordie server. The original song is hosted at www.azchords.com. Chordie works as a search engine and provides on-the-fly formatting. Chordie does not index songs against artists'/composers' will. To remove this song please click here.

Text color:
Chord color:
Chord grids: 
Font size:    
Page size: 

A A7 D G
Rate #2 of 3 versions

Login - add to songbook

SHARE PAGE  




You need to log in to post comments