Guitar Tabs, Chords and Lyrics
Server problems seems to be fixed. Chordie has been experiencing problems with songs disappearing. These issues now seems to be fixed, but still verifying the fix. If you find anything strange, please email admin@chordie.com.


College Kids  Relient K

Song: College Kids
Transcribed by: Ty Cornfield (twocorny@attbi.com)
Ok I've never posted any tab before, so i don't know if this will work...
Intro: C (let ring)
A(P.M.) F(P.M.) G(P.M.)
C(P.M.) A(P.M.) F(P.M.) G(ring)
 
 E----------------------------------------------------------------
 B--5h6-5-8--5h6-5-8--5h6-5-8--5h6-5------------------------------
 G-------5-------5---------5--------5-7---------------------------
 D----------------------------------------------------------------
 A----------------------------------------------------------------
 E----------------------------------------------------------------

Behind that they play:
C A F G (2x)
Verse:
 
 E----------------------------------------------------------------
 B----------------------------------------------------------------
 G--5xxxxxxx-----------5xxxxxxx-----------------------------------
 D--5xxxxxxx-7xxx-3xxx-5xxxxxxx-7xxx-3xxx-------------------------
 A--3xxxxxxx-7xxx-3xxx-3xxxxxxx-7xxx-3xxx-------------------------
 E-----------5xxx-1xxx----------5xxx-1xxx-------------------------
 E----------------------------------------------------------------
 B----------------------------------------------------------------
 G--5xxxxxxx-----------5xxxxxxx-----------------------------------
 D--5xxxxxxx-7xxx-3xxx-5xxxxxxx-7xxx-333--------------------------
 A--3xxxxxxx-7xxx-3xxx-3xxxxxxx-7xxx-333--------------------------
 E-----------5xxx-1xxx----------5xxx-111--------------------------

Chorus:
C A G(P.M.)
[C] [A] [G]  
Interlude
Then it just repeats the lead stuff, verse, and chorus before this (not
perfect, but pretty close. This is palm muted):
 
 E----------------------------------------------------------------
 B-----55---------------55----------------------------------------
 G-55------55--7-4--55------55--7-4-------------------------------
 D---55--55--55-------55--55--55----------------------------------
 A----------------------------------------------------------------
 E----------------------------------------------------------------
 E----------------------------------------------------------------
 B-----55---------------55----------------------------------------
 G-55------55--7-4--55------55--7-4-------------------------------
 D---55--55--55-------55--55--55----------------------------------
 A----------------------------------------------------------------
 E----------------------------------------------------------------

Then its just the chorus, then C A F behind whatever they say...
End on C
Thats it. Any questions just email me at twocorny@attbi.com, but you
can probably figure any mistakes out. If its totally off, well its not,
so dont worry about it.
In Him,
Ty

Important: The song above is NOT stored on the Chordie server. The original song is hosted at www.christianguitar.org. Chordie works as a search engine and provides on-the-fly formatting. Chordie does not index songs against artists'/composers' will. To remove this song please click here.

Text color:
Chord color:
Chord grids: 
Font size:    
Page size: 

A C G
Rate #1 of 1 versions

Jango Player

Login - add to songbook

SHARE PAGE  




You need to log in to post comments