Guitar Tabs, Chords and Lyrics
Major upgrade!! After one year development the new version of Chordie is now online! Please give feedback.


Heaven  Delirious?

Song: Heaven
Artist: Deliriou5
Album: Mezzamorphisis
Intro:
 
 -------------------------------------------------------------------------
 -------------------------------------------------------------------------
 -------------------------------------------------------------------------
 2---2---2------------2---2---2------------2---2---2-----------2---2---2--
 2---2---2------------2---2---2------------2---2---2-----------2---2---2--
 0---0---0------------0---0---0------------0---0---0-----------0---0---0--

Verse: xxx~strum dead strings
 
 --------------------------------------------------------------
 --------------------------------------------------------------
 --------------------------------------------------------------
 2---2---2-xxxxxx-2---2---2-xxxxxx-2---2---2-xxxxxx-2---2---2--
 2---2---2-xxxxxx-2---2---2-xxxxxx-2---2---2-xxxxxx-2---2---2--
 0---0---0-xxxxxx-0---0---0-xxxxxx-0---0---0-xxxxxx-0---0---0--

Pre chorus:
 
 ------------------------------------------------------------
 ------------------------------------------------------------
 5------------------------- "C"------------------------------
 5-----------------------------------------------------------
 3-----------------------------------------------------------
 ------------------------------------------------------------
 ----------------------------------------------------
 ----------------------------------------------------
 6---------------------------------------------------
 6---------------------------------------------------
 4---------------------------------------------------
 ----------------------------------------------------

guitar fill/run thingy?:
 
 ------10----------------5---------------3-
 ---8-----------------3---------------1----
 9-----------------4---------------2-------

Chorus:
[Em-F#m-G]  
[Em-F#m-G]  
[C] [D] [E]  
(2nd Verse, same as first)
Everything is the same until the music jam thing after the 2nd chorus...it goes like this:
(slide= / )
(in powerchords)
E A G/A/G/A/G E C D (repeats)
now it is vocal only and then it picks up on C in the middle of the
chorus...thats about all there is to it. it is really fun to play and
it is really anointed too. God bless

Important: The song above is NOT stored on the Chordie server. The original song is hosted at www.christianguitar.org. Chordie works as a search engine and provides on-the-fly formatting. Chordie does not index songs against artists'/composers' will. To remove this song please click here.

Text color:
Chord color:
Chord grids: 
Font size:    
Page size: 

C D E
Rate #1 of 1 versions

Jango Player

Login - add to songbook

SHARE PAGE  



You need to log in to post comments